El que muere por mí
Pioneros de Schoenstatt
Acordes

Subida por Jessi



Otras Versiones
Ver. 2

ENTRENA TU OÍDO MUSICAL CON ESTE JUEGO. ¿QUÉ ACORDE ES?. CLIC AQUÍ PARA JUGAR

Cambiar Cifrado
Americano Latino

Cambiar Tonalidad
-1 +1

Partir Pantalla Imprimir FAQ

+A
-A
LETRA CON ACORDES
Intro:


DO FA LAm

e ----------0-----------------------0---------------------0----------------
B --------1---1-------------------1---1-----------------1---1--------------
G ------0-------0---0---0---0---2-------2---0---0-----2-------2---2---2---2
D --------------------0---2---3-----------3---2---0------------------------
A ----3-----------3---------------------------------0-----------0---2---0--
E -------------------------------------------------------------------------



SOL

e ----------2-------2-------2----
B --------2---2-------2-------2--
G ------0-------0-------0-------0
D -------------------------------
A -------------------------------
E ----3--------------------------


OJO: Si no entiendes la Tablatura, toca la Intro en dedaje con las Notas

DO - FA - LAm - SOL




REm*

e ----------1-----------1-----------1------
B --------3---3-------3---3-------3---3----
G ------2-------2---2-------2---2-------2--
D ----0-----------2-----------3-----------3
A -----------------------------------------
E -----------------------------------------


---------------------------------------------------------------------------



Intro x2


A)

DO FA
Todo empezó en una cruz
LAm SOL
Donde un hombre murió y un Dios se entregó
DO FA
Silenciosa la muerte llegó

LAm SOL
Extinguiendo la luz que en un grito se ahogó


A`)

DO FA
Viendo su faz de dolor

LAm SOL
Una madre lloró y su amigo calló

DO FA
Pero siendo una entrega de amor

LAm SOL FA
Su camino siguió y en algún otro lado

SOL DO SOL
Una luz se encendió




B)
FA SOL LAm
Siendo hombre, amigo, esclavo y maestro

SOL FA
Siendo carga pesada, profesor y aprendiz

SOL DO SOL
Entregó hasta su cuerpo en el pan y la vid



Coro)

LAm FA DO SOL LAm
Desde entonces lo he visto caminar a mi lado

FA DO SOL LAm
A ese Dios que se humilla y muere por mi

FA DO SOL LAm
Es la barca en mi playa, el ruido del silencio

FA DO SOL REm*
Que se acerca a su hijo y me abraza feliz

FA SOL (Intro)
Que se acerca a su hijo y me abraza feliz



A`)
Viendo un humilde calvario
Con rostro cansado soporta la cruz
Y al verme rezando a sus pies
Se olvida de Él, me toma en sus brazos
Y me acoge otra vez



B)
Siendo fuego, paloma, el agua y el viento
Siendo niño inocente, un Padre y pastor
Hoy acepta mi ofrenda, es mi vida Señor


Coro)
Desde entonces lo he visto caminar a mi lado
A ese Dios que se humilla y muere por mi
Es la barca en mi playa, el ruido del silencio
Que se acerca a su hijo y me abraza feliz
Que se acerca a su hijo y me abraza feliz


C)
FA SOL
Y si ahora yo acepto esa cruz

LAm DO FA - SOL
Es por esa persona ese Dios

DO SOL
Es por Cristo Jesús




Coro)

LAm FA DO SOL LAm
Desde entonces lo he visto caminar a mi lado

FA DO SOL LAm
A ese Dios que se humilla y muere por mi

FA DO SOL LAm
Es la barca en mi playa, el ruido del silencio

FA DO SOL LAm
Que se acerca a su hijo y me abraza feliz

FA DO SOL LAm
Desde entonces lo he visto caminar a mi lado

FA DO SOL LAm
A ese Dios que se humilla y muere por mi

FA DO SOL LAm
Es la barca en mi playa, el ruido del silencio

FA DO SOL REm*
Que se acerca a su hijo y me abraza feliz

FA SOL (Intro)
Que se acerca a su hijo y me abraza feliz


ACORDES PARA GUITARRA

PIANO UKELELE
C
F
Am
G
Dm
A
B
C


COMENTARIOS

Aún no hay comentarios,

¡escribe el primero!

Para hacer una pregunta o dejar un comentario sobre esta canción, debes estar LOGUEADO

Las canciones más tocadas de Pioneros de Schoenstatt

Toca una Canción al Azar de Pioneros de Schoenstatt
C
F
Am
G
Dm
A
B
C

Nuestro servidor se demoró 0.07 segundos en generar esta página. Eso fue realmente muy rápido!