Hasta que el mundo arda por el
Pioneros de Schoenstatt
Acordes

Subida por Davidgui


Más Versiones
Ver. 2 Ver. 3

Cambiar Cifrado
Americano Latino

Cambiar Tonalidad
-1 +1

Partir Pantalla Imprimir FAQ

+A
-A
Muy buena canción, me encanta por eso la subi, para que otros también *
puedan disfrutarla, pero lamentablemente no me se la letra completa, *
por lo que cualquier arreglo avisar a [email protected] *
***********************************************************************

Intro:
E-------------------------------------------------|
B-------0-----------0-----------0-----------0-----|
G-----0---0-------0---0-------0---0-------0---0---|
D---0-------0---0-------0---0-------0---0-------0-|
A-2-----------2/3---------------------------------|
E-------------------------3-----------2-----------|

E-------------------------------------------------|
B-------0-----------1-----------3-----------3-----|
G-----0---0-------0---0-------0---0-------2---2---|
D---0-------0---0-------0---0-------0---0-------0-|
A-2-----------3-----------------------------------|
E-------------------------3-----------2-----------|

E-2-----3-----3-----3---2-------------------------|
B---3-----3-----3-----3---2-----2-----3-----3-----|
G-----0-----0-----0---------0-----0-----2-----2---|
D-----------------------------0-----0-----0-----0-|
A-2-----------3-----------------------------------|
E-------------------------3-----------2-----------|

E-2-----3-----3-----3---2-------------------------|
B---3-----3-----3-----3---2-----2-----3-----3-----|
G-----0-----0-----0---------0-----0-----2-----2---|
D-----------------------------0-----0-----0-----0-|
A-2-----------3-----------------------------------|
E-------------------------3-----------2-----------|

Continuar con arpegio (cualquiera)
MIm DO SOL RE
A. Mari...a toma todo lo que tengo
MIm DO SOL RE
y soy, te ofrezco mi corazón.
MIm DO SOL RE
Como aquel niño que hoy se acerca
MIm DO SOL RE
ante ti, y te habla de su canción.
MIm DO SOL SOL RE
Gota a gota mi sangre te entrego
MIm DO SOL RE RE RE4 RE
día a día a cumplir su misión.

(Rasgeo)
MIm DO SOL SOL RE
B. Hazme una antorcha que arda por cristo
MIm DO SOL RE
incendiar el corazón ser hogar,
SI7 MIm RE LA
como el sol que esparce su luz.
LAm SOL FA SOL
Hasta que el mundo arda por él.
LAm SOL FA
Hasta que el mundo arda por él.

Intro

A.

B.

LAm SOL
C. Maria quiero soñar
MIm FA
nuevos caminos alcanzar
LAm SOL
Quiero ser santo y si debo morir,
FA
mi vida quiero entregar

(Sube de Tonos... Si es muy dificil de cantar,
tocarla en el mismo tono de antes)

LAm FA DO DO SOL
B. Hazme una antorcha que arda por cristo
LAm FA DO SOL
incendiar el corazón ser hogar,
MI7 LAm SOL RE
como el sol que esparce su luz.
REm DO LA# DO
Hasta que el mundo arda por él.
REm DO LA#
Hasta que el mundo arda por él.


ACORDES PARA GUITARRA

PIANO UKELELE
Em
C
G
D
D4
B7
A
Am
F
A
B
E7
Dm
A#


COMENTARIOS

Aún no hay comentarios,

¡escribe el primero!

Escribe una pregunta, duda o comentario sobre esta canción, te responderemos a la brevedad.

Las más tocadas de Pioneros de Schoenstatt

Toca una Canción al Azar de Pioneros de Schoenstatt
Em
C
G
D
D4
B7
A
Am
F
A
B
E7
Dm
A#