c ▷ BUSH SATAN: (Piperrak) Acordes para Guitarra, Piano & Ukelele

Bush Satan (Acordes)

Piperrak

Subida por ericktorres

Compartir


Imprimir FAQ
+A
-A

Texto

Desplazamiento

Transportador

Color de Fondo

Archivos

-A
+A
Para el guitarra ke se ha sakado kasi todas las canciones.



Introducción sin letra;
                                         (x2 )
----------------------------------------------
----------------------------------------------
----9---------5-------------------------7-----
----------------------5------------------------
                                                          

-------------------------------------------------           
-------------------------------------------------           
---9-------5---------------------------------7---            
----------------------5--------------------------           

----------------------------------------------------
 -------------------------------------66----99---66-
 ----9----5------------------77---------------------
 ---------------5-----------------------------------
                                                       
Desde; Buaaaaaaaaaaa..... Hasta; El ruido de las bombas..

--------------------------------------
--------------------------------------
----9-------5---------------------7---
-------------------------5------------

La parte del bajo;

-------------------------------------------------       
-----------77--------- 77----------77---------77-       
-999999---555555-----------------777777----------      
---------------------------555555----------------      

---------------------------------------------------
----------77---------77----------------66--99--66--
-999999------555555-----------------77-------------
------------------------555555---77----------------

Durante el solo de guitarra (ke os tenies ke sakar vosotros);
el resto de lo instrumentos toka de esta forma.

--------------------------------        
--------------------------------        
---9------5-----------------7---          
-------------------5------------       

-----------------------------------------------
 ---------------------------------66---99---66-
--9-------5------------------77----------------
-----------------5-----------------------------

Desde ke empieza a kantar; pasado el atake  Hasta;el final.

----------------------------------
----------------------------------
----9-----5-------------------7---
--------------------5-------------


La guitarra es muy sencilla sigue la misma estructura.
 Un saludo para akellos ke escuchen e inerpreten piperrak.


Video Clip de Bush Satan


ACORDES PARA GUITARRA

PIANO UKELELE


TOP 20: Las más tocadas de Piperrak


Toca una Canción al Azar de Piperrak

Acordes

Cerrar

20.58

x

64