Mr. P. Mosh
Plastilina Mosh
Acordes

Subida por Leonardi97
Álbum: Aquamosh ( 1998)


Más Versiones
Ver. 2

Cambiar Cifrado
Americano Latino

Cambiar Tonalidad
-1 +1

Partir Pantalla Imprimir FAQ

+A
-A


Ver solo la LETRA
VERSO
Bm
Q Q Q Q Q Q Q Q Q Q Q Q
G||-----------------------|-----------------------|-----------------------|
D||-----------------------|-----------------------|-----------------------|
A||-------------7----8----|--9----8----7----------|-------------7----8----|
E||--7----10--------------|-----------------10----|--7----10--------------|


Q Q Q Q Q Q Q Q Q Q Q Q
-----------------------|-----------------------|-----------------------|
-----------------------|-----------------------|-----------------------|
--9----8----7----------|-------------7----8----|--9----8----7----------|
-----------------10----|--7----10--------------|-----------------10----|


Em
Q Q Q Q Q Q Q Q Q Q Q Q
-----------------------|-----------------------|-----------------------|
-----------------------|-----------------------|-------------7----8----|
-------------7----8----|--9----8----7----------|--7----10--------------|
--7----10--------------|-----------------10----|-----------------------|


Q Q Q Q Q Q Q Q Q Q Q Q
-----------------------|-----------------------|-----------------------|
--9----8----7----------|-------------7----8----|--9----8----7----------|
-----------------10----|--7----10--------------|-----------------10----|
-----------------------|-----------------------|-----------------------|


Bm
Q Q Q Q Q Q Q Q Q Q Q Q
-----------------------|-----------------------|-----------------------|
-----------------------|-----------------------|-----------------------|
-------------7----8----|--9----8----7----------|-------------7----8----|
--7----10--------------|-----------------10----|--7----10--------------|


F#m
Q Q Q Q Q Q Q Q Q Q Q Q
-----------------------|------------------------|-------------------------|
-----------------------|-------------9----10----|--11----10----9----------|
--9----8----7----------|--9----12---------------|-------------------12----|
-----------------10----|------------------------|-------------------------|


Em Bm
Q Q Q Q Q Q Q Q Q Q Q Q
-----------------------|-----------------------|-----------------------|
-------------7----8----|--9----8----7----------|-----------------------|
--7----10--------------|-----------------10----|-------------7----8----|
-----------------------|-----------------------|--7----10--------------|


Q Q Q Q Q Q H W
-----------------------|---------------------|-------------------||
-----------------------|---------------------|-------------------||
--9----8----7----------|---------------------|-------------------||
-----------------10----|--7------------------|-------------------||



CORO
Bm A G#m
W W W
G||-------------------|-------------------|-------------------|
D||-------------------|-------------------|-------------------|
A||-------------------|-------------------|-------------------|
E||--7----------------|--5----------------|--4----------------|


F#m
W
-------------------||
-------------------||
-------------------||
--2----------------||



PUENTE
Q Q Q Q Q Q Q Q Q Q Q Q
G||-----------------------|-----------------------|-----------------------|
D||-----------------------|-----------------------|-----------------------|
A||-------------7----8----|--9----8----7----------|-------------7----8----|
E||--7----10--------------|-----------------10----|--7----10--------------|


Q Q Q Q Q Q Q Q Q Q Q Q
-----------------------|-----------------------|-----------------------|
-----------------------|-----------------------|-----------------------|
--9----8----7----------|-------------7----8----|--9----8----7----------|
-----------------10----|--7----10--------------|-----------------10----|


Q Q Q Q W
----------------------|-------------------||
----------------------|-------------------||
----------------------|-------------------||
--7----6----5----3----|--0----------------||


SOLO DE GUITARRA Y TROMPETA
Q H Q W Q H Q
G||---------------------|-------------------|---------------------|
D||---------------------|-------------------|---------------------|
A||---------------------|--4----------------|---------------------|
E||--2-------------2----|-------------------|--2-------------2----|


Q. E H
---------------------||
---------------------||
--4---------4--------||
---------------------||


ACORDES PARA GUITARRA

PIANO UKELELE


COMENTARIOS

Aún no hay comentarios,

¡escribe el primero!

Escribe una pregunta, duda o comentario sobre esta canción, te responderemos a la brevedad.

Las más tocadas de Plastilina Mosh

Toca una Canción al Azar de Plastilina Mosh