Miel de motel
Playa Limbo
Acordes

Subida por Belensilva


Más Versiones
Ver. 2 Ver. 3

Cambiar Cifrado
Americano Latino

Cambiar Tonalidad
-1 +1

Partir Pantalla Imprimir FAQ

+A
-A


Ver solo la LETRA
Estos son los acordes exactos de esta cancion
(bueno, al menos a mi parecer, haha). Si tienen duda de algun
acorde solo chequen el glosario de acordes de lacuerda.net
Disfruten!
Cualquier peticion es bienvenida, solo mandenme un email =)

RaY Rivera O=P

El arpeggio se repite cada vez que se hacen los acordes de Asus2
y Dadd9
(es mas facil hacerlo con combinacion de pulgar e indice, en
lugar de pua)
p-> pulgar
i-> indice
h-> hammer (ligado)

Asus2 Dadd9
p p i p i p i p p p i p i p i p
E|--------------------------2-------------------------|
A|-0--------------------------------------------------|
D|-----2---2-------2---2--------0---0------0---0h2----|
G|-------2-------------------------------2---2--------|
B|-------------0------------------3-------------------|
e|-------------------2------0-------------------------| (x2)
i

Asus2 Dadd9 Asus2 - Dadd9
Vagan de esquina en esquina buscando un hogar
Asus2 Dadd9 Asus2 - Dadd9
tras unas medias corridas se puede encontrar
Bm F G Asus2 - Dadd9
una ilusion que se protege tras lapiz labial

Asus2 - Dadd9

Asus2 Dadd9 Asus2 - Dadd9
Rostros de caras sin nombre, vienen a acechar
Asus2 Dadd9 Asus2 - Dadd9
hadas de dones divinos y reinos de cal
Bm F G Asus2
una ilusion donde se cobran facturas de amor
F G
una ilusion donde se cobran...

-CORO-
A Em
Facturas y no es
A Em A
porque sea facil entender
Em D Dm Asus2 - Dadd9 - Asus2 - Dadd9
la vida con sabor a miel de motel

Asus2 Dadd9 Asus2 - Dadd9
Fragiles como la luna brillante y sutil
Asus2 Dadd9 Asus2 - Dadd9
que sobrepasan penumbras sin extinguir
Bm F G Asus2
una pasion que se alimenta de restos de amor
F G
una pasion que se alimenta...

-CORO-
A Em
De restos y no es
A Em A
porque sea facil entender
Em D
la vida con sabor...
B F#m B F#m B
y no es porque sea facil de entender
F#m E Em Bsus2 - E
la vida con sabor a miel de motel

Bsus2 - E - Bsus2 - E - Bsus2 - E - B

Arpeggio del final (se repite cuantas veces sea necesario)

Bsus2 Eadd9
E|--------------------------0-----------------------|
A|-2------------------------------------------------|
D|-----4---4-------4---4--------4---4-------4---4---|
G|-------4------------------------4-----------------|
B|-------------2------------------------0-----------|
e|-------------------2------------------------2-----|

FIN


ACORDES PARA GUITARRA

PIANO UKELELE
Dadd9
Asus2
Bm
F
G
A
Em
D
Dm
B
F#m
E
Bsus2
Eadd9


COMENTARIOS

Aún no hay comentarios,

¡escribe el primero!

Escribe una pregunta, duda o comentario sobre esta canción, te responderemos a la brevedad.

Las más tocadas de Playa Limbo

Toca una Canción al Azar de Playa Limbo
Dadd9
Asus2
Bm
F
G
A
Em
D
Dm
B
F#m
E
Bsus2
Eadd9