Yo digo si
Playa Limbo
Acordes

Subida por ManuelWLongoria


Más Versiones
Ver. 2 Ver. 3

Cambiar Cifrado
Americano Latino

Cambiar Tonalidad
-1 +1

Partir Pantalla Imprimir FAQ

+A
-A


Ver solo la LETRA
RaY Rivera 0=P ([email protected])
**********************************************************************

Intro C#m

Bbdim 012120
C#m G#m7 F#m7 B C#m
Hoy no dejo de pensar, como extraño tu mirada,
G#m7 F#m7 B Bbdim
esas tardes que se van, mientras busco tus palabras.

Am E/G#
Que se mezclan con el sol,
C#m F#m
con la música de tu voz,
B C#m
que vive en mi corazón


Cuantas veces me enredé, en los pliegues de tu piel,
como la primera vez, que vimos amanecer,
y decirte que hoy, mi camino es tu dirección,
B
yo si quieres te sigo.

CORO
Amaj7 G#m7 Amaj7 X02120
Yo digo sí,
F#m7 E
y sentirte aquí, por eso,
Amaj7 G#m7
yo digo sí,
F#m7 E
quiero estar junto a ti.

SOLO (1:21)
C#m G#m7 F#m7 B C#m G#m7 F#m7 B Bdim


Am E/G#
Como puedo perder,
C#m F#m
si la vida decide que,
B
yo si quieres te sigo.

CORO

PUENTE
Bm E
Y veo en tus ojos,
A Bbdim
la fuerza del mar,
F#m C#m
y en el horizonte,
A B
tus brazos me hacen llegar.

CORO

...por eso...

CORO


FINAL
Amaj7 Bbdim F#m B E
Yo digo si, ah! ah!
Amaj7 Bbdim F#m B E
Yo digo si, yo digo si,

Amaj7 Bbdim F#m B E
Yo-o-o-o-o digo si, uh!

Amaj7 G#m7 F#m B E E
Yo digo si, yo digo si, ah ah ah ah!


Hola amigos!

Aquí les mando el solo de guitarra de esta canción.
Me califican y me escriben a ver que le parece.

Saludos!!

SOLO (1:21)
C#m G#m7 F#m7 B
e-------4-5/7-7--4---------------------------------------
B---5-7------------7-5-5/7-----5-5h7p5-5h7p5-5h7p5-------
G----------------------------6----------------------6-4--
D--------------------------------------------------------
A--------------------------------------------------------
E--------------------------------------------------------

C#m G#m7 F#m7 B Bdim
e--7/9-7--------------------------------------------------------------
B--------9-7---------9/10-9-7-------12p11-11p10-10p9------------------
G------------9-9/11-----------9-6--------------------12p11-11p10-8-8/9
D---------------------------------9-----------------------------------
A---------------------------------------------------------------------
E---------------------------------------------------------------------


ACORDES PARA GUITARRA

PIANO UKELELE
C#m
G#m7
F#m7
B
Bbdim
Am
E/G#
F#m
E
Amaj7
Bdim
Bm
A


COMENTARIOS

Aún no hay comentarios,

¡escribe el primero!

Escribe una pregunta, duda o comentario sobre esta canción, te responderemos a la brevedad.

Las más tocadas de Playa Limbo

Toca una Canción al Azar de Playa Limbo
C#m
G#m7
F#m7
B
Bbdim
Am
E/G#
F#m
E
Amaj7
Bdim
Bm
A