Mira a Honduras
Polache
Acordes

Subida por Mariane397


Más Versiones
Ver. 2 Ver. 3

Cambiar Cifrado
Americano Latino

Cambiar Tonalidad
-1 +1

Partir Pantalla Imprimir FAQ

+A
-A


Ver solo la LETRA
Este es mas o menos el intro de la rola de polache aunque
va acompañando de otro instrumento folklorico aparte de la
guitarra acustica..

INTRO
-----

F#m D A E
E |------------|2-4-4h5-4-2--------|2-2-0-0----------|
B |-2~~~0-2----|-----------2-2/5---|--------3-3-2-0--|
G |--------2---|-------------------|-----------------|
D |------------|-------------------|-----------------|
A |------------|-------------------|-----------------|
E |------------|-------------------|-----------------|

F#m D A E
E |-----------|0---------4-5--------|7-9-----5-7-7/9-7h9--|
B |-----------|-3-2-0-2-----------2-|-----5-7-------------|
G |1h2--------|----------------2-4--|---------------------|
D |---2-2/4---|-------------2-4-----|---------------------|
A |-----------|---------------------|---------------------|
E |-----------|---------------------|---------------------|


F#m
Que no te tapen los ojos
D
ojo con la corrupción y la imconprension
A
la indiferencia y la delincuencia
E F#m
que con frecuencia ninguno se encuentra en esta nación
D
ponele mucha atención a esta canción de corazón
A
es mas lo bueno que aquí tenemos
E
mas los que queremos creemos en esta tierra
D E
es una bendición.

Coro
A
Mira a Honduras con otros ojos
D A
que esta es tu tierra
F#m E
descubrí que al mirarla con otros ojos vas a merecerla
A
Mira a Honduras con otros ojos
D A
tenés que quererla
F#m E A
descubrí que al mirarla con otros ojos vas a merecerla

D A E F#m
lalalalalala..lalalalala..(x2)

E |---------------|
B |---2-3-2h3-0-2-|
G |2-4------------|
D |---------------|
A |---------------|
E |---------------|

F#m
Que no te tapen los ojos
D
la deforestación y contaminación
A
la pobreza injusticia y bajeza
E F#m
que con frecuencia ninguno se encuentra en esta nación
D
ponele mucha atención a esta canción de corazón
A E
es mas la riqueza grandeza nobleza y mas la belleza
D E
que hay en esta tierra es una bendición

Coro

A
Mira a Honduras con otros ojos
D A
que esta es tu tierra
F#m E
descubrí que al mirarla con otros ojos vas a merecerla
A
Mira a Honduras con otros ojos
D A
tenés que quererla
F#m E A
descubrí que al mirarla con otros ojos vas a merecerla

A
Mira a Honduras con otros ojos
D A
que esta es tu tierra
F#m E
descubrí que al mirarla con otros ojos vas a merecerla
A
Mira a Honduras con otros ojos
D A
tenés que quererla
F#m E A
descubrí que al mirarla con otros ojos vas a merecerla

D A E F#m
lalalalalala..lalalalala.

D A E A E E A
lalalalalala..lalalalala.


VIVA HONDURAS!!


ACORDES PARA GUITARRA

PIANO UKELELE
F#m
D
A
E
G


COMENTARIOS

Aún no hay comentarios,

¡escribe el primero!

Escribe una pregunta, duda o comentario sobre esta canción, te responderemos a la brevedad.

Las más tocadas de Polache

Toca una Canción al Azar de Polache
F#m
D
A
E
G