Volveremos a celebrar juntos
Polache
Acordes

Subida por rosiebittar2905


Más Versiones
Ver. 2

Cambiar Cifrado
Americano Latino

Cambiar Tonalidad
-1 +1

Partir Pantalla Imprimir FAQ

+A
-A


Ver solo la LETRA
Esta es una de las mejores rolas de polache!
dedicada a nuetra Seleccion Nacional, porque hoy
si vamos al mundial PAPA!
PD. les debo el solo! pero lo voy a poner pronto ok.
saludos al trio calabera!

Acordes;

G Cadd9 Em D C A
E--3-- E--3-- E--0-- E--2-- E--0-- E--0--
B--3-- B--3-- B--0-- B--3-- B--1-- B--2--
G--0-- G--0-- G--0-- G--2-- G--0-- G--2--
D--0-- D--2-- D--2-- D--0-- D--2-- D--2--
A--2-- A--3-- A--2-- A--0-- A--3-- A--0--
E--3-- E--0-- E--0-- E--0-- E--0-- E--0--


G
volveremos volveremos ..(polache)
Cadd9
volveremos volveremos .. (y los primos)
Em
volveremos volveremos ..(nos vamos juntos al mundial!!!)
D
volveremos a celebrar juntos.. (con mi seleccion nacional!!)

G
volveremos volveremos
Cadd9
volveremos volveremos
Em
volveremos volveremos
D
volveremos a celebrar juntos. [x3]


SOLO(1)..

G Cadd9 Em
E |-----7--------7-|-----7--------7----|3~~~-----|
B |8-10--10-8-10-- |8-10--10-8-10------|----5~~~-|
G |----------------|-------------------|---------|
D |----------------|-------------------|---------|
A |----------------|-------------------|---------|
E |------------- --|-------------------|---------|

(primos!! se viene la diversion y la pacion del futbol..!!)

D G Cadd9
E |------------2h3------|-----7--------7--|-------|
B |---------3~3---3~~~--|8-10--10-8-10----|3/6~~~-|
G |------2-4------------|-----------------|-------|
D |---2-4---------------|-----------------|-------|
A |2-4------------------|-----------------|-------|
E |---------------------|-----------------|-------|

Cadd9 Em D
E |-----7--------7-|-----------------2---|---------------3-2----|
B |8-10--10-8-10-- |---3-3h0-3------3-3~-|---3-3h0-3----3---3~~~|
G |----------------|2-4----------2-4-----|2-4--------2-4--------|
D |----------------|----------2-4--------|----------------------|
A |----------------|---------------------|----------------------|
E |------------- --|---------------------|----------------------|




G
volveremos a celebrer juntos
Cadd9
lucharemos desde el pitazo inicial
Em
y sabemos que cuando los hondureños
D G
queremos si nos proponemos algo lo hacemos
G Cadd9
venceremos y sabemos que solo estando juntos lo haremos
Em
hasta que suene el pitaso final
D
celebrando con mi seleccion nacional !!

CORO

C D Em
volveremos a celebrar juntos , volveremos volveremos .
C A D
volveremos a celebrar juntos con mi seleccion nacionaall!!

G
volveremos volveremos
Cadd9
volveremos volveremos
Em
volveremos volveremos
D
volveremos a celebrar juntos..(X2)

G
volveremos a celebrar juntos,
Cadd9
mostraremos al mundo lo que es jugar,
Em D
gambetear, driblar,marcar ,filtear,rematar,sudar,cabecear y GOLEAR!..
G Cadd9
saltaremos, gritaremos, cantaremnos, aleros, primos nos abrazaremos ,
Em
cantando por nuestro equipo hasta el final
D
celebrando que vamos al mundial!.


C D Em
volveremos a celebrar juntos , volveremos volveremos .
C A D
volveremos a celebrar juntos con mi seleccion nacionaall!!


solo..

G
volveremos volveremos (primos!!)
Cadd9
volveremos volveremos (celebremos!)
Em
volveremos volveremos
D
volveremos a celebrar juntos..

G
volveremos volveremos
Cadd9
volveremos volveremos
Em
volveremos volveremos
D
volveremos a celebrar juntos.

G
volveremos volveremos
Cadd9
volveremos volveremos (honduras!!)
Em
volveremos volveremos (MI SELECCION!)
D
volveremos a celebrar juntos..

G
volveremos volveremos (POLACHE!)
Cadd9
volveremos volveremos (JUNTOS)
Em
volveremos volveremos (AL MUNDIAL)
D
volveremos a celebrar juntos..

G
volveremos volveremos
Cadd9
volveremos volveremos
Em
volveremos volveremos
D
volveremos a celebrar juntos..

FIN!


ACORDES PARA GUITARRA

PIANO UKELELE
G
Cadd9
Em
D
C
A


COMENTARIOS

Aún no hay comentarios,

¡escribe el primero!

Escribe una pregunta, duda o comentario sobre esta canción, te responderemos a la brevedad.

Las más tocadas de Polache

Toca una Canción al Azar de Polache
G
Cadd9
Em
D
C
A