Nuestro Momento (Acordes)

Portugal

Subida por Eugge

Compartir


Imprimir FAQ
+A
-A

Texto

Desplazamiento

Transportador

Color de Fondo

Archivos

-A
+A
Tab por: Cristián Velásquez.
mail: [email protected]

Este tab lo hice a base de una versión en vivo que encontré en youtube
(http://www.youtube.com/watch?v=q5nJrvoCN7s&feature=feedf)

Cejillo 3er espacio

INTRO:                           x2|
e|--------|-------|--------|-------|-----0--|
B|-----1--|-----1-|-----1--|-----1-|-----1--|
G|----2---|----0--|----0---|----0--|-----0--|
D|---2----|---0---|---0----|---2---|-----2--|
A|--0-----|--2----|--3-----|--3----|-----3--|
E|--------|-------|--------|-------|--------|
Verso 1

         No   podemos    quemar    Los recuerdos
e|----------|----------|---------|------------|
B|-------1--|-------1--|-------1-|-------1----|
G|-----2----|-----0----|-----0---|-----0------|
D|---2------|---0------|---0-----|---2--------|
A|-0--------|-2--------|-3-------|-3----------|
E|----------|----------|---------|------------|

      Los nudos no desciendienden    ni con tu té
e|----------|------------|---------|------------|
B|-------1--|---------1--|-------1-|-------1---1|
G|-----2----|-------0----|-----0---|-----0-----0|
D|---2------|-----0------|---0-----|---2-------2|
A|-0--------|---2--------|-3-------|-3---------3|
E|----------|------------|---------|------------|

[Verso 1]
Tal vez con los nuevos momentos
Nunca màs debamos bajar del tren

Se mantiene el C un compas y termina con esto para pasar al sgte verso

[Final]
e|----------|------------|
B|-------1--|-------1----|
G|-----0----|-----0------|
D|---2------|---0--------|
A|-3--------|-2----------|
E|----------|------------|

[Verso 1] + [Final]
de la mano en el mismo trayecto
se los sueños fuertes puentes van a tejer
hormigas apoyan nuestro proyecto
y ellas no apuestan cuando van a perder

Puente x2 + [Final rasgueado]

Tuuuuruuutuuuu tu tuuuu (8)
      F         Am         G
e|----0---|------0----|-------|
B|----1---|------1----|----3--|
G|----2---|------2----|----4--|
D|----3---|------2----|----5--|
A|----3---|------0----|----5--|
E|--------|-----------|-------|

Coro
      F          Am        C
e|----0---|------0----|-------|
B|----1---|------1----|----1--|
G|----2---|------2----|----0--|
D|----3---|------2----|----2--|
A|----3---|------0----|----3--|
E|--------|-----------|-------|

Cuando se enteren...
e|----0---|
B|----1---|
G|----0---|
D|----0---|
A|----2---|
E|----3---|

De que tu y yo...
e|----0---|----0----|---0--|---0--|
B|----0---|----0----|---0--|---0--|
G|----0---|----0----|---0--|---0--|
D|----7---|----5----|---5--|---5--|
A|----9---|----3----|---3--|---3--|
E|----8---|----5----|---3--|---5--|

De aqui en adelante se repite lo de anterior

[Verso 1] + [Final] x2
tu sonrisa es mi pasatiempo
tu voz el disco que ahorro para tener
hare de tus besos mis alimentos
en ascensores mi hambre tiende a crecer

[Verso 1] + [Final] x2
me pierdo en tus ojos, en el silencio
el mundo conspiro, lo hizo suceder
pues de suerte no hay nada en esto
tu y yo sabemos, no acompaña mi ser

[Puente] + [Final rasgueado]

[Coro]
las calles se vacían en nuestro momento
los arboles aguantan su respiracion
la gente se va a levantar de sus asientos
cuando se enteren de que tu y yo...

[Puente]
                                 SI damos...
      Am         Am        Am       Am
e|---------|----------|---------|---------|
B|-------1-|-------1--|-------1-|-------1-|
G|-----2---|-----2----|-----2---|-----2---|
D|---2-----|---2------|---2-----|---2-----|
A|-0-------|-0--------|-0-------|-0-------|
E|---------|----------|---------|---------|

...Todo                             Vas A...
e|---------|----------|---------|---------|
B|-------1-|-------1--|-------1-|-------1-|
G|-----2---|-----2----|-----2---|-----2---|
D|---3-----|---3------|---3-----|---3-----|
A|-3-------|-3--------|-3-------|-3-------|
E|---------|----------|---------|---------|

  Ver                             Como se ...
e|---------|----------|---------|---------|
B|-------3-|-------3--|-------3-|-------3-|
G|-----4---|-----4----|-----4---|-----4---|
D|---4-----|---4------|---4-----|---4-----|
A|-5-------|-5--------|-5-------|-5-------|
E|---------|----------|---------|---------|

   llenan albums...         de nuestro ayer....
e|---------|----------|---------|---------|
B|-------1-|-------1--|-------1-|-------1-|
G|-----0---|-----0----|-----0---|-----0---|
D|---2-----|---2------|---0-----|---0-----|
A|-3-------|-3--------|-2-------|-2-------|
E|---------|----------|---------|---------|

[Intro] x2

MI7
Porque este es Nuestro Momento
MI7                                           MI7
e|----0---|                             e|-----------|
B|----3---|                             B|----5------|
G|----1---| o como lo hace en el video  G|----7------|
D|----2---|                             D|----6------|
A|----2---|                             A|----7------|
E|----0---|                             E|-----------|

Am
¿Sabes? ¡Es Nuestro Momento!
      Am
e|----0---|
B|----1---|
G|----2---|
D|----2---|
A|----0---|
E|--------|

Porque este es Nuestro Momento
¿Sabes? ¡Es Nuestro Momento!
e|----0---|----0----|---0--|---0--|
B|----0---|----0----|---0--|---0--|
G|----0---|----0----|---0--|---0--|
D|----7---|----5----|---5--|---5--|
A|----9---|----3----|---3--|---3--|
E|----8---|----5----|---3--|---5--|

[Intro]
Es mi primer tab, dudas a [email protected]
Saludos!


Video Clip de Nuestro Momento


ACORDES PARA GUITARRA

PIANO UKELELE
F
Am
G
C
B
A
E7


TOP 20: Las más tocadas de Portugal


Toca una Canción al Azar de Portugal

Acordes

Cerrar
F
Am
G
C
B
A
E7

09.34

x

77