Love Rollercoaster (Acordes)

Red Hot Chili Peppers

Subida por JoshuaD

Compartir


Imprimir FAQ
+A
-A

Texto

Desplazamiento

Transportador

Color de Fondo

Archivos

-A
+A
intro:
     C       Bb     A                      Bb   C       
E|---8---8---6-8-6--5--7-5-----5-5-5--5-5--6-6--8--8-----8--8--8----||
B|---8---8---6-6-6--5--5-5-----5-5-5--5-5--6-6--8--8-----8--8--8----||
G|o--9---9---7-7-7--6--6-6-----6-6-6--6-6--7-7--9--9-----9--9--9---o||
D|o--10--10--8-8-8--7--7-7-----7-7-7--7-7--8-8--10-10----10-10-10--o||
A|------------------------------------------------------------------||
E|------------------------------------------------------------------||
YOU GIVE ME THAT FUNNY FEELING IN MY TUMMY....
ahw shit, yeah, that's right huh

Verso 1:
Rollercoaster of Love (say what)
Rollercoaster yeah (oohh oohh oohh)
Oh baby you know what I'm talking about
Rollercoaster of Love
oh yeah it's Rollercoaster time
lovin' you is really wild
Oh it´s just a love rollercoaster
step right up and get your tickets

Refrão:
      G5                              G#5 A5
E|----------------------------------------------||
B|----------------------------------------------||
G|o--------------------------------------------o||
D|o-x-5-x-5-x-5-x-5-x-5-5-5-5-x-5-x-5-6-6-7-7/-o||
A|--x-5-x-5-x-5-x-5-x-5-5-5-5-x-5-x-5-6-6-7-7/--||
E|--x-3-x-3-x-3-x-3-x-3-3-3-3-x-3-x-3-4-4-5-5/--||
 Your love is like a Rollercoaster baby,baby
 I wanna ride yeah (awawaw)

Verso 2:
Move over dad 'cause I'm a double dipple
Upside down on th big dip dipper
1,2,1,2,3 I've got a ticket come ride with me
Let me go down on the marry-go-round
All is fair 'n' a big fair ground
Let's go slow. let's go fast
Like a liqourice twist gonna whip your ass.

Rollercoaster (say what)
I will be there for you I will be your man.

HERRAMIENTAS ACORDESWEB:


LETRA DE LA CANCIÓN:

Ver la letra sola (sin acordes)

DESCARGAR PDF / IMPRIMIR CANCIÓN



ACORDES PARA GUITARRA

PIANO UKELELE
C
Bb
A
G5
G#5
A5


TOP 20: Las más tocadas de Red Hot Chili Peppers


Acordes

Cerrar
C
Bb
A
G5
G#5
A5

03.18

x

235