Compartir


Imprimir FAQ
+A
-A

Texto

Desplazamiento

Transportador

Color de Fondo

Archivos

-A
+A
Intro e Verso:
|------------------------------|
|------------------------------|
|------------------------------|
|----------5-5-5-----5-5-5-----|
|------------------------------|
|-12-----------------------|


Pre-Refrão:
|-----------|
|-----------|
|---5-7--7--| X4
|-7---------|
|-----------|
|-----------|


Refrão:
|-----------8-8--8-8-|--------------------------------|
|-----------8-8--8-8-|--------------------------------|
|--------------------|---5----------------------------|2 Vezes o conjunto todo
|-----5--7-----------|------7--5----------------------|
|--7-----------------|--------------------------------|
|--------------------|--------------------------------|



Pausa:
|----------------|
|----------------|
|----------------|
|----------------|
|----------------|
|--12--------|


Interlúdio: 
E|------------------------------------
B|---------------8/-------------------
G|---------------7/-------------------
D|--5------------6/-----------5-------
A|----7-7-7-5-7--7/---5-7-7-7---7-7---
E|------------------------------------



Outro :
|---------------------------------------------|
|-8---7---8---7---8---3---1---3---8---7---10--|
|-9---7---9---7---9---4---2---4---9---7---9---|
|---------------------------------------------|
|---------------------------------------------|
|---------------------------------------------|

|------------------------------------12-------|
|-8--11---12---8------10---11---12---12-------|
|-9--10---12---9------9----10---12---12-------|
|---------------------------------------------|
|---------------------------------------------|
|---------------------------------------------|

Video Clip de Purple Stain


ACORDES PARA GUITARRA

PIANO UKELELE


TOP 20: Las más tocadas de Red Hot Chili Peppers


Acordes

Cerrar

05.04

x

139