Compartir


Cambiar Cifrado
Americano Latino

Cambiar Tonalidad
-1 +1
Imprimir FAQ
+A
-A

Texto

Desplazamiento

Transportador

Color de Fondo

Archivos

TONALIDAD, TAMAÑO, CIFRADO, SCROL.

Nos renovamos: Ahora puedes cambiar TODO haciendo clic en ICONO de la Guitarra () que aparece en la parte inferior de esta página.


LETRA CON ACORDES

 nice and very jazzy bassline!! Just listen to the song and have fun!
Please let me no if there are any mistakes in this tab


#. = half note (1/2)
# = 1/4
h = hammer on
/ = slide to

I can write more jazzbasstabs if this one is well received, so let me now if there is interest!

G|*|*|*|*|-----------|-----------|------------|----------|-------------|
D|*.|*.|*|--------7--|*|*|------------|*.|------5---5--|
A|-----------|----------|--------3-4|*|*|*|*.-|*|*|
E|-----------|----------|-----------|*|-----------|-----------|------------|----------|-------------|

G|------------|*|--------7---|-----------|------------|------------|-----------|-------------|
D|*|*|*|*|---55----3h5|------------|*|*|
A|*|*|*|*.|*|*.-|*|*|
E|------------|-------------|------------|-----------|------------|------------|-----------|-------------|

G|----------3-5|--6-5-3-----6--|---------------|------------3----|---------------|
D|*|--------6-3----|--3-4-5-6/8-6/8|6-------------6--|---------------|
A|*|4-------------4|6--------------|----3-4-5-6-----6|4-3-----4-4---3|
E|-------------|---------------|---------------|--4--------------|----6-4-----4--|

G|------------0--|--------------8|------3--------|---------------|----------4----|
D|----3-3-2-2---2|--3-4-5-6h8-6--|--3-4---6-4-3--|----6----------|0-4-5-6-7---7-4|
A|4-4------------|6--------------|6-------------6|4-4---4-0-0-2-4|---------------|
E|---------------|---------------|---------------|---------------|---------------|

G|--4-0----------|------------6--|--2------------|----------1-0--|----0----------|
D|2-----4-2-0----|----------7----|0---4-2-0------|0-0-2-2-3-----3|2-4---4-2-0----|
A|------------4-2|0-4-5-6-7-----0|----------0-2-4|---------------|------------2-0|
E|---------------|---------------|---------------|---------------|---------------|

G|--4-0----------|--2------------|--0---1-0------|--0-1-1-3-1-0--|---------------|
D|2-----2--------|0---4-2--------|1---3-----3-1--|1-------------3|--0-5-3-0-----0|
A|--------0-0-2-4|--------1-1-3-0|--------------3|---------------|1---------1-3--|
E|---------------|---------------|---------------|---------------|---------------|

G|--3-0----------|--3-0-------2--|----------1-3--|--1-3---3------|----0---4------|
D|1-----3-1-----0|1-----1-4-4---4|3-----3-3-----3|3-----3-------0|1-----1--------|
A|----------3-1--|---------------|----3----------|----------1-3--|--1------22-222|
E|---------------|---------------|--4------------|---------------|---------------|

G|---------------|---------------|------2-4-2----|--1-2-3-4-4-1--|--1-4-1-0-0-3-0|
D|2-----1-2-2---2|4---2-3-4-4----|--1-4-------4-3|2-------------2|2--------------|
A|--2-4-------4--|--4---------0-4|2--------------|---------------|---------------|
E|---------------|---------------|---------------|---------------|---------------|

G|---------------|---------------|---------------|---------------|0-3-7/0-3-0-----|
D|4-2-1-------1-4|4-4-----4-4----|2-2---------0-2|3-------0-0-2-3|-----------3-2-0|
A|------4-2-2----|----2-2-----2-2|----2-2-3-3----|--0-1-3--------|----------------|
E|---------------|---------------|---------------|---------------|----------------|

G|--0------------|--------2------|--2-5-2-1-1-1h4-1|0-0-----0-0----|0-0-----0-00---|
D|----2-0-----0-2|3---0-----3-0--|3----------------|---------------|--------------0|
A|3-------3-3----|--0---3-------3|-----------------|----3-3-----3-3|----3-3-----3--|
E|---------------|---------------|-----------------|---------------|---------------|

G|0-0---0---very-|---------------|--0-1--2-3------|---------------|- - - - - - - -|
D|----------short|3---0-----0-3-3|3----3-----0-3-0|3---0-----0-3-3|3 - - - - - -3.|
A|----3---3-rest-|--0---3-1------|----------------|--0---3-1------|- - - - - - - -|
E|---------------|---------------|----------------|---------------|- - - - - - - -|

end

Video Clip de Mack The Knife


ACORDES PARA GUITARRA

PIANO UKELELE


TOP 20: Las más tocadas de Robbie Williams


Acordes

Cerrar

19.06

x

106