Compartir


Cambiar Cifrado
Americano Latino

Cambiar Tonalidad
-1 +1
Imprimir FAQ
+A
-A

Texto

Desplazamiento

Transportador

Color de Fondo

Archivos

TONALIDAD, TAMAÑO, CIFRADO, SCROL.

Nos renovamos: Ahora puedes cambiar TODO haciendo clic en ICONO de la Guitarra () que aparece en la parte inferior de esta página.


LETRA CON ACORDES

Solo de introdução
E|----7-8-10-10-8-7h8p7----10-8-7-8-----------------------  
B|8-8--------------------10----------10-8-7h8p7--------7-8-  
G|-----------------------------------------------7--7-9-----  
D|---------------------------------------------------------- 
A|---------------------------------------------------------- 
E|---------------------------------------------------------- 

E|---------7-10-8-7h8p7-------------
B|----8-10--------------8-----------
G|7-9---------------------7-5-4--2-0
D|----------------------------------
A|----------------------------------
E|----------------------------------

  F
I know I stand in line, until you think you have the time
            C7
To spend an evening with me
And if we go someplace to dance, I know that there's a chance
               F
You won't be leaving with me
      F7
And afterwards we drop into a quiet little place
            Bb
And have a drink or two
    C7
And then I go and spoil it all, by saying something stupid
         F
Like: "I love you"

      F7
I can see it in your eyes, that you despise the same old lies
     Bb
You heard the night before
     C7
And though it's just a line to you, for me it's true
                F7
It never seemed so right before

I practice every day to find some clever lines to say
To make the meaning come through
But then I think I'll wait until the evening gets late
And I'm alone with you

The time is right your perfume fills my head, the stars get red
And oh the night's so blue
And then I go and spoil it all, by saying something stupid
Like: I love you
("I love you, I love you,...")

Video Clip de Somethin' Stupid


ACORDES PARA GUITARRA

PIANO UKELELE
F
C7
F7
Bb


TOP 20: Las más tocadas de Robbie Williams


Acordes

Cerrar
F
C7
F7
Bb

22.52

x

179