La negra Ester
Roberto Parra
Acordes

Subida por tehuete



Otras Versiones
Ver. 2

ENTRENA TU OÍDO MUSICAL CON ESTE JUEGO. ¿QUÉ ACORDE ES?. CLIC AQUÍ PARA JUGAR

Cambiar Cifrado
Americano Latino

Cambiar Tonalidad
-1 +1

Partir Pantalla Imprimir FAQ

+A
-A
LETRA CON ACORDES
3/4 Vals

1era parte
Am E A7 Dm
--------------8-|------------7-|----------------|-------------------
----------------|--------------|------------11--|--8-10-11-10-8-----
--9-10-9-8-9----|9-10-9-8-9----|-9-10-9-8-9-----|---------------10--
----------------|--------------|----------------|-------------------
----------------|--------------|----------------|-------------------
----------------|--------------|----------------|-------------------

G (G7) C Dm E Am
---------------10-|7-8-10-8-7-----|----------------------------8-7----
-----8------------|------------10-|---------------------------------10
--10---10-9-10----|---------------|8-8-10-8---------------------------
------------------|---------------|---------10-9-10-9-8-9-10-9--------
------------------|---------------|-----------------------------------
------------------|---------------|-----------------------------------

2da parte (se mantienen los acordes durante toda la canción)


-12-12-12-----12-----12----12----|-10----10----10----10----|-9---9---9---9----
---------13-----13-----13----13--|---12----12----12----12--|--10--10--10--10--
-----------14-----14-----14----14|-----13----13----13----13|----9---9---9---9-
---------------------------------|-------------------------|------------------
---------------------------------|-------------------------|------------------
---------------------------------|-------------------------|------------------


-10--10--10--10--|-10----10----10----10----|-8--8--8--8--|-7--7--8--7--|-5--5----5-
--10--10--10--10-|---12----12----12----12--|--8--8--8--8-|--9--9--9--9-|--5--5---5-
---10--10--10--10|-----12----12----12----12|---9--9--9--9|---7--7--7--7|---5--5--5-
-----------------|-------------------------|-------------|-------------|-----------
-----------------|-------------------------|-------------|-------------|-----------
-----------------|-------------------------|-------------|-------------|-----------

3era parte

-10/12-12-12-|-10--10-|----------|-------10-|-9-10-9-10-9-10-12-10-|-9-10------
-------------|---13---|-13-12-13-|-12-13----|----------------------|-----------
-------------|--------|----------|----------|----------------------|-----10-10-
-------------|--------|----------|----------|----------------------|-----------
-------------|--------|----------|----------|----------------------|-----------
-------------|--------|----------|----------|----------------------|-----------

-10-10-12-12-|-10-10-------------------10-12-|-12-10---10------------------------
-------------|-------13-13-12-13-12-13-------|-------13--13-12-13-12-10-9-10-----
-------------|-------------------------------|-----------------------------------
-------------|-------------------------------|-----------------------------------
-------------|-------------------------------|-----------------------------------
-------------|-------------------------------|-----------------------------------

Aquí se re pite la 1era parte.

Aconsejo escucharla para coordinarse bien con los tiempos, suerte.

dudas, consultas, criticas, etc. [email protected]
Saludos al tío Roberto que nos ve desde alguna parte.


ACORDES PARA GUITARRA

PIANO UKELELE
Am
E
A7
Dm
G
G7
C


COMENTARIOS

Aún no hay comentarios,

¡escribe el primero!

Para hacer una pregunta o dejar un comentario sobre esta canción, debes estar LOGUEADO

Las canciones más tocadas de Roberto Parra

Toca una Canción al Azar de Roberto Parra
Am
E
A7
Dm
G
G7
C

Nuestro servidor se demoró 0.03 segundos en generar esta página. Eso fue realmente muy rápido!