Lala
Roberto Parra
Acordes

Subida por ronald777



Otras Versiones
Ver. 2

ENTRENA TU OÍDO MUSICAL CON ESTE JUEGO. ¿QUÉ ACORDE ES?. CLIC AQUÍ PARA JUGAR

Cambiar Cifrado
Americano Latino

Cambiar Tonalidad
-1 +1

Partir Pantalla Imprimir FAQ

+A
-A
LETRA CON ACORDES
 C                                      C                         Dm
----8-5------------|------------7--5--|----8-5----------|------------
---5-----8-5-----5-|-5-5-----5--5--5--|---5----8-5----5-|-5-5--------
--5-----------7-5--|-----7-5----5--5--|--5---------7-5--|-----7-5-7--
-5-----------------|------------5--5--|-5---------------|------------
-------------------|------------------|-----------------|------------
-------------------|------------------|-----------------|------------

Dm D G (G7)
-----------------|-----------------|--8-7-5-----|---------------
----8------10----|----8------10----|-------7-5--|-8-7-6---------
-7-9-9-7--9--9-7-|-7-9-9-7--9--9-7-|-7--------7-|------7--------
-----------------|-----------------|------------|-------9-7-----
-----------------|-----------------|------------|---------------
-----------------|-----------------|------------|---------------

C C7 F
----8-5--------|----------7--5-|----8-10-8------------|-10-10-8---------
---5---8-5---5-|-5-5---5--5--5-|---5------11-8--------|--------11-10----
--5-------7-5--|----7-5---5--5-|--5-----------9-------|-----------------
-5-------------|----------5--5-|-5-------------10-9-8-|-----------------
---------------|---------------|----------------------|-----------------
---------------|---------------|----------------------|-----------------

Fm* Em*D#m*Dm G G7 C
--8-10-8----8-10-8-|-7---7-6-5-|---5-8-7-----3---------------
--9-----9--9-------|-8---8-7-6-|--6---------3-6----3-5-------
-10------10--------|-9---9-8-7-|-7---------4------4---5------
-------------------|-----------|----------5------5-----------
-------------------|-----------|-----------------------------
-------------------|-----------|-----------------------------



Se repite todo, para luego llegar a esta parte:


C C
---8--8--7-7--5-5--3-3---|-----------------|--8--8--7-7--5-5--3-3----
--10-10--8-8--6-6--5-5-5-|-5-3-5--4/5--4/5-|-10-10--8-8--6-6--5-5-5--
-----------------------5-|----5---4/5--4/5-|----------------------5--
-------------------------|-----------------|-------------------------
-------------------------|-----------------|-------------------------
-------------------------|-----------------|-------------------------

Dm D G (G7)...
-----------|-----------------|-----------------|--8-7-5-----|---------------
-5-3-------|----8------10----|----8------10----|-------7-5--|-8-7-6---------
----5-5/7--|-7-9-9-7--9--9-7-|-7-9-9-7--9--9-7-|-7--------7-|------7--------
-----------|-----------------|-----------------|------------|-------9-7-----
-----------|-----------------|-----------------|------------|---------------
-----------|-----------------|-----------------|------------|---------------

Los acordes son los mismos que al principio

----8-5--------|----------7--5-|----8-10-8------------|-10-10-8---------
---5---8-5---5-|-5-5---5--5--5-|---5------11-8--------|--------11-10----
--5-------7-5--|----7-5---5--5-|--5-----------9-------|-----------------
-5-------------|----------5--5-|-5-------------10-9-8-|-----------------
---------------|---------------|----------------------|-----------------
---------------|---------------|----------------------|-----------------

G C
--8-10-8----8-10-8-|-7---7-6-5-|---5-8-7-----3-----------|--3--8---
--9-----9--9-------|-8---8-7-6-|--6---------3-6----3-5---|--3--8---
-10------10--------|-9---9-8-7-|-7---------4------4---5--|--4--9---
-------------------|-----------|----------5------5-------|--5-10---
-------------------|-----------|-------------------------|--5-10---
-------------------|-----------|-------------------------|--3--8---


Bueno, no puedo explicarles la manera de tocarlo aqui en el tab, sería bueno
que escucharan el album ´Peineta´ de Los tres junto al tío Roberto y Lalo parra
para que se fijen como va, buena suerte, opiniones, consultas, críticas y demases
[email protected] ´CHAO GRACIAS´


ACORDES PARA GUITARRA

PIANO UKELELE
C
Dm
D
G
G7
C7
F
Fm


COMENTARIOS

Aún no hay comentarios,

¡escribe el primero!

Para hacer una pregunta o dejar un comentario sobre esta canción, debes estar LOGUEADO

Las canciones más tocadas de Roberto Parra

Toca una Canción al Azar de Roberto Parra
C
Dm
D
G
G7
C7
F
Fm

Nuestro servidor se demoró 0.04 segundos en generar esta página. Eso fue realmente muy rápido!