Compartir


Cambiar Cifrado
Americano Latino

Cambiar Tonalidad
-1 +1
Imprimir FAQ
+A
-A

Texto

Desplazamiento

Transportador

Color de Fondo

Archivos

TONALIDAD, TAMAÑO, CIFRADO, SCROL.

Nos renovamos: Ahora puedes cambiar TODO haciendo clic en ICONO de la Guitarra () que aparece en la parte inferior de esta página.


LETRA CON ACORDES


From: ** (John Mastrangelo)

        Anyway, here it is.... If anyone disagrees with it let me know,
        this is all from memory.



Intro:
-------------------------------------------------------------------------------|
-------------------------------------------------------------------------------|
-------------------------------------------------------------------------------|
-----0h2p0h2p0h2p0h2p0h2p0........---------------------------------------------|
-------------------------------------------------------------------------------|
-------------------------------------------------------------------------------|

--------------3---------3-------------------------0------------------------------|
--------------3---------3---2b3r2-----------------0-------various fills----------|
--------------0-------------2b3r2------------------------------------------------|
---------------------------------------------------------------------------------|
-------1h2-----------------------------------2-----------------------------------|
-0------------------0---------------------0--------------------------------------|


chorus:

Cmaj7        Asus2        G        B7      Cmaj7   B7

--0------------------------------------------0---------------------------------|
--0------------0--------------------0--------0-----0-------0-------------------|
--0------------2-----------0--------2--------0-----2-------2-------------------|
--2------------2-----------0--------1--------2-----1-------1-------------------|
--3------------0-----------2--0--1--2--------3-----2---2---2-------------------|
---------------------------3---------------------------------------------------|

Outro:

---------------------------------------------------------------------------------|
---------------------------------------------------------------------------------|
---------------------------------------------------------------------------------|
----2---4--4s5-------7b8r7----5-------------2--4--4s5------7b8r7-----------------|
-----------------5-7--------------5h7-----------------5--7---------5--5h7--------|
---------------------------------------------------------------------------------|

Video Clip de Bridge Of Sighs


ACORDES PARA GUITARRA

PIANO UKELELE


TOP 20: Las más tocadas de Robin Trower


Acordes

Cerrar

13.23

x

157