Exagerado
RPM
Acordes

Subida por Sarai


Más Versiones
Ver. 2 Ver. 3 Ver. 4 Ver. 5 Ver. 6

Cambiar Cifrado
Americano Latino

Cambiar Tonalidad
-1 +1

Partir Pantalla Imprimir FAQ

+A
-A
Mudar para Português

Ver solo la LETRA
 Intro.: (G D C)  Riff da Introdução:
E|--------------------------
B|--------------------------
G|----------0---------------
D|------0h2-----------------
A|----3--------2------------
E|--------------------------


G D C
Amor da minha vida
G D C
Daqui até a eternidade
Em D
Nossos destinos foram traçados
C Am Bm D
Na maternidade
G D C
Paixão cruel, desenfreada
G D C
Te trago mil rosas roubadas
Em D
Pra desculpar minhas mentiras
B
Minhas mancadas
C
Exagerado
D
Jogado aos teus pés
G D C
Eu sou mesmo exagerado
Em D C Am Bm D
Adoro um amor inventado
G D C
Eu nunca mais vou respirar
G D C
Se você não me notar
Em D
Eu posso até morrer de fome
C Am Bm D
Se você não me amar
Em Bm
E por você eu largo tudo
F F#º
Vou mendigar, roubar, matar
Em Bm
Até nas coisas mais banais
F F#º B7
Pra mim é tudo ou nunca mais
C
Exagerado
D
Jogado aos teus pés
G D C
Eu sou mesmo exagerado
Em D C Am Bm D
Adoro um amor inventado

Solo:G,D,C,G,D,C,Em,D,C,Am,Bm,D,Em

E|-------------------------------------------------------------|
B|--15---15---15---15----15------------------------------------|
G|--14b--14b--14b--14b---14b---12~-------12-14b--14------------|
D|---------------------------------12/14-----------------------|
A|-------------------------------------------------------------|
E|-------------------------------------------------------------|

E|------------------12-----------------------------------------|
B|-------12/13--15------15--13--12/13/12-----------------------|
G|--12~----------------------------------14--12--14b--14b------|
D|-------------------------------------------------------------|
A|-------------------------------------------------------------|
E|-------------------------------------------------------------|

E|--------------------15--12-----15--15--12--------------------|
B|-----15----15---12---------12--------------------------------|
G|--16----16---------------------------------------------------|
D|-------------------------------------------------------------|
A|-------------------------------------------------------------|
E|-------------------------------------------------------------|

Em Bm
E por você eu largo tudo

F F#º
Carreira, dinheiro, canudo
Em Bm
Até nas coisas mais banais
F F#º B7
Pra mim é tudo ou nunca mais
C
Exagerado
D
Jogado aos teus pés
G D C
Eu sou mesmo exagerado
Em D C Am Bm D
Adoro um amor inventado

Exagerado
D C
Com mil rosas roubadas
G
eu sou mesmo exagerado
Em D
Eu adoro um amor inventado
G C
Jogado aos seus pés, bem melhor
G D C
Eu sou mesmo exagerado
Em D
Adoro um amor inventado

ACORDES PARA GUITARRA

PIANO UKELELE
G
D
C
Em
Am
Bm
B
F
F#dim
B7


COMENTARIOS

Aún no hay comentarios,

¡escribe el primero!

Escribe una pregunta, duda o comentario sobre esta canción, te responderemos a la brevedad.

Las más tocadas de RPM

Toca una Canción al Azar de RPM
G
D
C
Em
Am
Bm
B
F
F#dim
B7