Juvenilia
RPM
Acordes

Subida por Solmar1089
Álbum: Revoluções por minuto ( 1985)


Más Versiones
Ver. 2 Ver. 3 Ver. 4 Ver. 5 Ver. 6

Cambiar Cifrado
Americano Latino

Cambiar Tonalidad
-1 +1

Partir Pantalla Imprimir FAQ

+A
-A
Mudar para Português
Intr.: Gm  F Dm (6x)

Gm F Dm F Dm F
Sinto um imenso vazio e o Brasil que
Gm F Dm F Dm F Gm
Herda o costume servil, não serviu pra mim
Cm Gm Cm
Juventude aventura e medo
Gm Cm Gm Cm Gm
Desde cedo encerrarado em grades de aço

F Dm F Dm F Gm
E um pedaço do meu coração é teu
F Dm F Dm F Gm
Destroçado com as mãos, pelas mãos de Deus
Cm Gm Cm
E as imagens, transmissões divinas
Gm Cm Gm Cm
E o cinismo e o protestantimos europeu

(Gm F Dm F Dm F)(2x)
(Gm Cm Gm Cm )(2x)

Solo:
E|--------------------------------------------------|
B|--------------------------------------------------|
G|---------5---7--8-7--7-------5--------------------|
D|-5---7-8---------------5-7-8-----5/15-15-17-17-17-|
A|--------------------------------------------------|
E|--------------------------------------------------|

E|------------------------------------------------15--17b18-|
B|-----------------15--15h16-15---16h18-18--16h18-----------|
G|----14-15-17--17------------------------------------------|
D|-17-------------------------------------------------------|
A|----------------------------------------------------------|
E|----------------------------------------------------------|

*Faça o ultimo Bend do solo lentamente

(Gm F Dm)

Gm F Dm F Dm F Gm
Parte o primeiro avião eu não vou voltar
F Dm F Dm F Gm
E quem vem pra ficar, pra cuidar de ti,
Cm Gm Cm Gm
Terra linda sofre ainda a vinda
Cm Gm Cm Gm
De piratas mercenários sem direção,

F Dm F Dm Dm
Eu até sei quem são é eu sei, eu sei
Gm F Dm F Dm F Gm
Você sempre faz confusão diz que não e vem,
Cm Gm Cm Gm
Vem chorando, vem pedir desculpas,
Cm Gm Cm
Vem sangrando dividindo a culpa entre nós .

Final - (Gm F Dm )(4x)

ACORDES PARA GUITARRA

PIANO UKELELE
Gm
F
Dm
Cm


COMENTARIOS

Aún no hay comentarios,

¡escribe el primero!

Escribe una pregunta, duda o comentario sobre esta canción, te responderemos a la brevedad.

Las más tocadas de RPM

Toca una Canción al Azar de RPM
Gm
F
Dm
Cm