Louras Geladas
RPM
Acordes

Subida por tony
Álbum: Revoluções por minuto ( 1985)


Más Versiones
Ver. 2 Ver. 3 Ver. 4 Ver. 5 Ver. 6

Cambiar Cifrado
Americano Latino

Cambiar Tonalidad
-1 +1

Partir Pantalla Imprimir FAQ

+A
-A
Mudar para Português
Base do baixo: (4x)

G|--------------2------------------------------------------|
D|------2---0-3--3-----------------------------------------|
A|--0-3---3------------------------------------------------|
E|---------------------------------------------------------|

G|---------------------------------------------------------|
D|--2-0----------------------------------------------------|
A|------3-2-0----------------------------------------------|
E|---------------------------------------------------------|

Riff Guitarra:

E|-------5------5-------------------------------------------|
B|-------5------5-5-----5----------------------------7b(9)--|
G|--7b(9)--7b(9)--7b(9)-7b(9)----7b(9)--7---5-----5--7b(9)--|
D|---------------------------------------------7------------|
A|----------------------------------------------------------|
E|----------------------------------------------------------|

Am Dm Am F


Am Dm Am F
Disfarça e faz que nem me viu, que não me ouviu te chamar
Am Dm Am F
Desfaz-se assim de mim que nem se faz com qualquer um

Am F Am
Agora eu sei... passei por cada papel e rastejei
F Am
Tentando entrar no seu céu, agora eu sei, sei, sei
F Am F
Passei por cada papel me embriaguei e acordei num bordel

Am Dm Am F
Já sei que um é pouco dois é bom três é demais
Am Dm Am F
Eu fico louco de ciúmes de um outro rapaz

Am F Am
Agora eu sei... passei por cada papel e rastejei
F Am
Tentando entrar no seu céu, agora eu sei, sei, sei
F Am F
Passei por cada papel me embriaguei e acordei num bordel

SOLO (Am Dm Am F) 4x

E Am E Am
Na madrugada, na mesa do bar
E Am D E
Loiras geladas vêm me consolar

Am Dm Am F
Qualquer mulher é sempre assim vocês são todas iguais
Am Dm Am F
Nos enlouquecem então se esquecem já não querem mais

Am F Am
Agora eu sei... passei por cada papel e rastejei
F Am
Tentando entrar no teu céu, agora eu sei, sei, sei
F Am F
Passei por cada papel me embriaguei e acordei num bordel
(Am F)
Mas, muito mais

E Am E Am
Na madrugada, na mesa do bar
E Am Dm E
Loiras geladas vêm me consolar

Am Dm Am F
Passei por cada papel e rastejei
Am Dm Am F
Passei por cada papel me embriaguei
Am Dm Am F
E acordei num bordel

ACORDES PARA GUITARRA

PIANO UKELELE
Am
Dm
F
E
D


COMENTARIOS

Aún no hay comentarios,

¡escribe el primero!

Escribe una pregunta, duda o comentario sobre esta canción, te responderemos a la brevedad.

Las más tocadas de RPM

Toca una Canción al Azar de RPM
Am
Dm
F
E
D