Stay With Me
Sam Smith
Acordes

Subida por LUCY
Álbum: In the Lonely Hour ( 2014)


Más Versiones
Ver. 2 Ver. 3 Ver. 4 Ver. 5 Ver. 6

Cambiar Cifrado
Americano Latino

Cambiar Tonalidad
-1 +1

Partir Pantalla Imprimir FAQ

+A
-A


Ver solo la LETRA
Intro 2x:

Am7 F C

Primeira Parte:

Am7
Guess it's true
F C
I'm not good at a one night stand
Am7 F
But I still need love
C
'Cause I'm just a man
Am7 F
These nights never seem
C
To go to plan
Am7 G4
I don't want you to leave
C
Will you hold my hand

Refrão:
Am7 F C
Oh, won't you stay with me
Am7 F C
'Cause you're all I need
G Am7 F C
This ain't love, it's clear to see
E7/G# Am7 F C
But, darling, stay with me

Segunda parte:

Am7 F C
Why am I so emotional
Am7 F
No, it's not a good look
C
Need some self control
Am7
And deep down
F C
I know this never works
Am7 G4
But you can lay with me
C
So it doesn't hurt

Refrão:
Am7 F C
Oh, won't you stay with me
Am7 F C
'Cause you're all I need
G Am7 F C
This ain't love, it's clear to see
E7/G# Am7 F C
But, darling, stay with me

Terceira Parte:

Am7
Oh, oh, oh, oh
F C
Oh, oh, oh, oh
Am7
Oh, oh, oh, oh
F C G
Oh, oh, oh, oh

Am7
Oh, oh, oh, oh
F C E7/G#
Oh, oh, oh, oh
Am7
Oh, oh, oh, oh
F C
Oh, oh, oh, oh

Refrão Final:
Am7 F C
Oh, won't you stay with me
Am7 F C
'Cause you're all I need
G Am7 F C
This ain't love, it's clear to see
E7/G# Am7 F C
But, darling, stay with me

Am7 F C
Oh, won't you stay with me
Am7 F C
'Cause you're all I need
G Am7 F C
This ain't love, it's clear to see
E7/G# Am7 F C
But, darling, stay with me

Dedilhado Intro 2x:

Am7 F C
E|-----------x-----0----0-------------------|
B|-1-------1-x--1--1----1-------------------|
G|-0-------2-x--0--0----0-------------------|
D|-2-----3---x--2--2----2-------------------|
A|-0-x-0-----x--3--x--3-x-3-----------------|
E|---x-------x-----x----x-------------------|

Dedilhado Primeira Parte:

Parte 1 (3x)

Am7 F C
E|-----------x-----0----0-------------------|
B|-1-------1-x--1--1----1-------------------|
G|-0-------2-x--0--0----0-------------------|
D|-2-----3---x--2--2----2-------------------|
A|-0-x-0-----x--3--x--3-x-3-----------------|
E|---x-------x-----x----x-------------------|

Parte 2

Am7 G4 C
E|-----------x-----0----0-------------------|
B|-1-------3-x--1--1----1-------------------|
G|-0-------5-x--0--0----0-------------------|
D|-2-------5-x--2--2----2-------------------|
A|-0-x-0-----x--3--x--3-x-3-----------------|
E|---x---3---x-----x----x-------------------|

Dedilhado Refrão:

Parte 1

Am7 F C
E|-----------x-----0----0-------------------|
B|-1-------1-x--1--1----1-------------------|
G|-0-------2-x--0--0----0-------------------|
D|-2-----3---x--2--2----2-------------------|
A|-0-x-0-----x--3--x--3-x-3-----------------|
E|---x-------x-----x----x-------------------|

Parte 2

Am7 F C G
E|-----------x-----0------------------------|
B|-1-------1-x--1--1----0-------------------|
G|-0-------2-x--0--0----0-------------------|
D|-2-----3---x--2--2----0-------------------|
A|-0-x-0-----x--3--x----x-------------------|
E|---x-------x-----x--3-x-3-----------------|

Parte 3

Am7 F C E7/G#
E|-----------x-----0------------------------|
B|-1-------1-x--1--1----3-------------------|
G|-0-------2-x--0--0----4-------------------|
D|-2-----3---x--2--2----0-------------------|
A|-0-x-0-----x--3--x----x-------------------|
E|---x-------x-----x--4-x-4-----------------|

Parte 1

Am7 F C
E|-----------x-----0----0-------------------|
B|-1-------1-x--1--1----1-------------------|
G|-0-------2-x--0--0----0-------------------|
D|-2-----3---x--2--2----2-------------------|
A|-0-x-0-----x--3--x--3-x-3-----------------|
E|---x-------x-----x----x-------------------|

ACORDES PARA GUITARRA

PIANO UKELELE
Am7
F
C
G4
G
E7/G#


COMENTARIOS

Aún no hay comentarios,

¡escribe el primero!

Escribe una pregunta, duda o comentario sobre esta canción, te responderemos a la brevedad.

Las más tocadas de Sam Smith

Toca una Canción al Azar de Sam Smith
Am7
F
C
G4
G
E7/G#