Filthy Gorgeous (Acordes)

Scissor Sisters

Subida por marceloverdugo

Compartir


Imprimir FAQ
+A
-A

Texto

Desplazamiento

Transportador

Color de Fondo

Archivos

-A
+A
I looked at the bass tab for this and it doesn't sound anything like the song lol (sorry 
the tabber but it just doesn't!!!)
Anyway here is my version of the tab and it sounds pretty much perfect.

h = hammer-on: e.g. 1h2
/ = slide: e.g. 1/2
p = pull-off e.g. 2p1

The guitar doesn't play in the verse, maybe a few little riffs in between but no serious tab.

Chorus:[x2 for each one](I know it looks abit weird on the first bit but the "10s" made 
notes look like they were in the wrong order.)

e----------------------------------------------------|
b----------------------------------------------------|
g----------------------------------------------------|
d---10-7--8--9--10-7--8--9--10-7--8--9--10-7--8--9---|
a----------------------------------------------------|
E--8--5--6--7--8--5--6--7--8--5--6--7--8--5--6--7----|

Then this (still chorus.)

e----------------------------------------------------|
b----------------------------------------------------|
g----------------------------------------------------|
d-------------------------------------8--------------|
a---------8-8h9p8-8-------------8-8h9---9-x-8--------|
E--8-8-11-----------x-11-8-8-11---------------11-8---|

That's all the guitar does.

Any corrections are welcome so if you have any email me at:
*.

Video Clip de Filthy Gorgeous


ACORDES PARA GUITARRA

PIANO UKELELE


TOP 20: Las más tocadas de Scissor Sisters


Acordes

Cerrar

19.50

x

187