Compartir


Imprimir FAQ
+A
-A

Texto

Desplazamiento

Transportador

Color de Fondo

Archivos

-A
+A
This is a funky song. You have to keep your fingers moving at a fast steady pace.

Intro

G----------------------------------------------------|
D---------------------5------------------------------| x3
A-----7----7----5-7-------7----7----5--5-------------|
E--0----0----0----------0----0----0------------------|

Verse

G----------------------------------------------------|
D---------------------5------------------------------| x3
A-----7----7----5-7-------7----7----5--5-------------|
E--0----0----0----------0----0----0------------------|

(x2) Play the second half of verse below twice
G---------------------5--------------------------------------5-----7----5----3----2|
D-----7----7----5-7-------7----7----5?5-------7----7----5-7------------------------|
A--0----0----0----------0----0----0------------0----0----0------5----3----1----0---|
E----------------------------------------------------------------------------------|

G---------------------------------------------------|
D--------------------5------------------------------| x2
A-----7----7----5-7------7----7----5--5-------------|
E--0----0----0---------0----0----0------------------|

Chorus

G-----2----2----2----4----5----5----5--|
D--------------------------------------|
A--0----0----0----2----3----3----3-----|
E--------------------------------------|


G----------------------------------------------|
D---6----5----5----5----5----3----3----3----5--|
A----------------------------------------------|  x4
E--4----3----3----3----3----1----1----1----3---|

End Chorus (the same as the main chorus)

G-----2----2----2----4----5----5----5--|
D--------------------------------------|
A--0----0----0----2----3----3----3-----|
E--------------------------------------|


G----------------------------------------------|
D---6----5----5----5----5----3----3----3----5--| x2
A----------------------------------------------|
E--4----3----3----3----3----1----1----1----3---|

Intro
Verse
Chorus
Verse
Chorus x2
End chorus


This is my first tab, I everything ok but if you see any mistakes please email me at
*. You know the deal.

Video Clip de Tits On The Radio


ACORDES PARA GUITARRA

PIANO UKELELE


TOP 20: Las más tocadas de Scissor Sisters


Acordes

Cerrar

07.50

x

84