Adiós vida mía (Acordes)

Seguimos perdiendo

Subida por Arturoposada

Compartir


Imprimir FAQ
+A
-A

Texto

Desplazamiento

Transportador

Color de Fondo

Archivos

-A
+A
NOTA: Todos los acordes son kintas.


++ El simbolo ">" signifika SLIDE++


  D         G
Adios vida mia
   A          D
adios adios amor


INTRO

     D         G          A            D   G D
e|------------------------------------------------|
B|------------------------------------------------|
G|---7---7-6-7------------------------------------|
D|-7---7-------9--9-9-7-9-7--7-7----7-------------|
A|-------------------------------10---9-9>10-9----|
E|------------------------------------------------|

       D           G           A                D G D
e|------------------------------------------------------|
B|------------------------------------------------------|
G|-----7---7-6-7-7>9--9-9-7-9-11--11-11>12-11-9-7-9-7---|
D|-5>7---7----------------------------------------------|
A|------------------------------------------------------|
E|------------------------------------------------------|


 D                      G
Me dejas vazio si no estas
   A                        D   G D
y hoy que tengo frio ya te vas
 D                     G
Volvere de nuevo a pensar
  A                          D   G D
que no queda nada de que hablar
 D                     G
Volvere de nuevo a buscar
A                     D    G D
en una botella la verdad

 B             G
Solo queda el vino
      A                   D  D C#
y ahogarme en mi mejor dolor
 B             G
Solo queda un libro
     A                  D
dedicado para un gran amor


 D         G
Adios vida mia
   A          D   G D
adios adios amor
 D         G
Adios vida mia
   A          D   G D
adios adios amor


SOLO

     D         G          A            D   G D
e|------------------------------------------------|
B|------------------------------------------------|
G|---7---7-6-7------------------------------------|
D|-7---7-------9--9-9-7-9-7--7-7----7-------------|
A|-------------------------------10---9-9>10-9----|
E|------------------------------------------------|

       D           G           A                D G D
e|------------------------------------------------------|
B|------------------------------------------------------|
G|-----7---7-6-7-7>9--9-9-7-9-11--11-11>12-11-9-7-9-7---|
D|-5>7---7----------------------------------------------|
A|------------------------------------------------------|
E|------------------------------------------------------|


 D                      G
La lluvia mojaba la ciudad
  A                         D   G D
mientras escuchaba una vez mas
  D                        G
Que llegue la lluvia y te vas
 A                          D    G D
porque ya no quieres verme mas


D         G
Adios vida mia
   A          D   G D
adios adios amor
 D         G
Adios vida mia
   A          D   G D
adios adios amor
D         G
Adios vida mia
   A          D   G D
adios adios amor


++En ezta parte se toca de fondo el solo++

D         G
Adios vida mia
   A          D   G D
adios adios amor

HERRAMIENTAS ACORDESWEB:


LETRA DE LA CANCIÓN:

Ver la letra sola (sin acordes)

OTRAS VERSIONES DE LA MISMA CANCIÓN:

Ver. 2

DESCARGAR PDF / IMPRIMIR CANCIÓN



ACORDES PARA GUITARRA

PIANO UKELELE
D
G
A
B
C#


TOP 20: Las más tocadas de Seguimos perdiendo


Acordes

Cerrar
D
G
A
B
C#

01.40


106