Pastillas y cocaina (Acordes)

Seguimos perdiendo

Subida por marianomartinez

Compartir


Imprimir FAQ
+A
-A

Texto

Desplazamiento

Transportador

Color de Fondo

Archivos

-A
+A
ps aqui sta sta tablatura
de pastillas i cocaina
100% escrita por mi,
va dedicada parala banda:
osio punk rock


*=Pm (Palm Mute)
/=Slide Up



  Intro:
e|------------------------------------------------------||
B|------------------------------------------------------||
G|-/9-9-9-9-9-9-9-9-9-9-9-9-----------------------------|| x2
D|-/9-9-9-9-9-9-9-9-9-9-9-9—-7-7--7-7-7-11-11-11-9-9-9--||
A|-/7-7-7-7-7-7-7-7-7-7-7-7—-7-7--7-7-7-11-11-11-9-9-9--||
E|---------------------------5-5--5-5-5-9—-9-—9—-7-7-7--||
     * * * * * * * * * * * *


e|-----------------------------------------||
B|-9-7-9-5-5--9-7-9-5--9-7-9-5-5--9-9-7-9--||
G|-----------------------------------------||
D|-----------------------------------------||
A|-----------------------------------------||
E|-----------------------------------------||



e|--------------------------------------------------
B|--------------------------------------------------
G|--------------------------------------------------
D|-----9-----9-----9-----9--------------------------
A|-7-7-7-7-7-7-7-7-7-7-7-7-----7-----7-----9-----9--
E|-------------------------5-5-5-5-5-5-7-7-7-7-7-7--

  Dices ke el amor existe no entiendo porke lo dices


e|--------------------------------------------------
B|--------------------------------------------------
G|--------------------------------------------------
D|-----9-----9-----9-----9--------------------------
A|-7-7-7-7-7-7-7-7-7-7-7-7-----7-----7-----7-----7--
E|-------------------------5-5-5-5-5-5-5-5-5-5-5-5--

 las chicas que me enlokecen suelen ser adictas frias

e|------------------------------||
B|------------------------------||
G|------------------------------||
D|------------------------------||
A|-----11-----11-9-9-11-11-9-9--||
E|-9-9-9--9-9-9--7-7-9--9--7-7--||

         Sin         amor


e|------------------------------------------------||
B|------------------------------------------------||
G|-9-9-9-9----9---9-9-9-9-------------------------||
D|-9-9-9-9----9---9-9-9-9--7-7-7-7---7--9-9-9-9---||
A|-7-7-7-7----7---7-7-7-7--7-7-7-7---7--9-9-9-9---||
E|-------------------------5-5-5-5---5--7-7-7-7---||

       Las drogas ke me enlokecen pastillas i cocaina



e|------------------------------------------------||
B|------------------------------------------------||
G|-9-9-9-9----9---9-9-9-9-------------------------||
D|-9-9-9-9----9---9-9-9-9--7-7-7-7---7--9-9-9-9---||
A|-7-7-7-7----7---7-7-7-7--7-7-7-7---7--9-9-9-9---||
E|-------------------------5-5-5-5---5--7-7-7-7---||

     Las chicas no son extrañas suelen ser adictas frias




e|--------------------------------||
B|--------------------------------||
G|--------------------------------||
D|-9-9-9-9-9-9-9-9-9--------------||
A|-7-7-7-7-7-7-7-7-7-7-7-9-9-9-9--||
E|-------------------5-5-7-7-7-7--||
          Sin amooooooooooooooor


E|-------------------------------------------------------||
B|-9-7-9-5-5--9-7-9-5------9-7-9-5-5--9-7-9-5--9-7-9-5-5-||
G|-------------------------------------------------------||
D|-------------------------------------------------------||
A|-------------------------------------------------------||
E|-------------------------------------------------------||

 No hai cosas en esta vida mejor ke la kokaina, las chicas no


e|------------------------------------------------------||
B|-9-7-9-5----9-7-9-5-5--9-7-9-5-----9-7-9-5-5--9-7-9-5-||
G|------------------------------------------------------||
D|------------------------------------------------------||
A|------------------------------------------------------||
E|------------------------------------------------------||

 son extrañas pero mejoran la vida no vuelvo a hacer esas cosas


e|------------------------------------------------------------------||
B|-9-7-9-5-5--9-7-9-5--9-7-9-5-5--9-7-9-5--9-7-9-5-5----9--9--7--9~-||
G|------------------------------------------------------------------||
D|------------------------------------------------------------------||
A|------------------------------------------------------------------||
E|------------------------------------------------------------------||

 Ke hacen ke me deprima me chupa un huevo la vida se hacerka un nuevo dia



e|-----------------------------------------------------||
B|-----------------------------------------------------||
G|-9-9-9-9-9-9-9-9-9-9-9-9-----------------------------|| x2
D|-9-9-9-9-9-9-9-9-9-9-9-9—-7-7--7-7-7-11-11-11-9-9-9--||
A|-7-7-7-7-7-7-7-7-7-7-7-7—-7-7--7-7-7-11-11-11-9-9-9--||
E|--------------------------5-5--5-5-5-9—-9-—9—-7-7-7--||



e|-----------------------------------------||
B|-9-7-9-5-5--9-7-9-5--9-7-9-5-5--9-9-7-9--||
G|-----------------------------------------||
D|-----------------------------------------||
A|-----------------------------------------||
E|-----------------------------------------||



e|--------------------------------------------------
B|--------------------------------------------------
G|--------------------------------------------------
D|-----9-----9-----9-----9--------------------------
A|-7-7-7-7-7-7-7-7-7-7-7-7-----7-----7-----9-----9--
E|-------------------------5-5-5-5-5-5-7-7-7-7-7-7--

  Dices ke el amor existe no entiendo porke lo dices


e|--------------------------------------------------
B|--------------------------------------------------
G|--------------------------------------------------
D|-----9-----9-----9-----9--------------------------
A|-7-7-7-7-7-7-7-7-7-7-7-7-----7-----7-----7-----7--
E|-------------------------5-5-5-5-5-5-5-5-5-5-5-5--

 las chicas que me enlokecen suelen ser adictas frias

e|------------------------------||
B|------------------------------||
G|------------------------------||
D|------------------------------||
A|-----11-----11-9-9-11-11-9-9--||
E|-9-9-9--9-9-9--7-7-9--9--7-7--||

         Sin         amor


e|------------------------------------------------||
B|------------------------------------------------||
G|-9-9-9-9----9---9-9-9-9-------------------------||
D|-9-9-9-9----9---9-9-9-9--7-7-7-7---7--9-9-9-9---||
A|-7-7-7-7----7---7-7-7-7--7-7-7-7---7--9-9-9-9---||
E|-------------------------5-5-5-5---5--7-7-7-7---||

      Las drogas ke me enlokecen pastillas i cocaina



e|------------------------------------------------||
B|------------------------------------------------||
G|-9-9-9-9----9---9-9-9-9-------------------------||
D|-9-9-9-9----9---9-9-9-9--7-7-7-7---7--9-9-9-9---||
A|-7-7-7-7----7---7-7-7-7--7-7-7-7---7--9-9-9-9---||
E|-------------------------5-5-5-5---5--7-7-7-7---||

     Las chicas no son extrañas suelen ser adictas frias




e|--------------------------------||
B|--------------------------------||
G|--------------------------------||
D|-9-9-9-9-9-9-9-9-9--------------||
A|-7-7-7-7-7-7-7-7-7-7-7-9-9-9-9--||
E|-------------------5-5-7-7-7-7--||

          Sin amoooooooooooooooor

E|--------------------------------------------------------||
B|-9-7-9-5-5---9-7-9-5------9-7-9-5-5--9-7-9-5--9-7-9-5-5-||
G|--------------------------------------------------------||
D|--------------------------------------------------------||
A|--------------------------------------------------------||
E|--------------------------------------------------------||

  No hai cosas en esta vida mejor ke la kokaina,las   chicas no


e|-------------------------------------------------------||
B|-9-7-9-5----9-7-9-5-5--9-7-9-5--9-7-9-5-5--9-7-9-5-----||
G|-------------------------------------------------------||
D|-------------------------------------------------------||
A|-------------------------------------------------------||
E|-------------------------------------------------------||

 son extrañas pero mejoran la vida no vuelvo a hacer esas cosas


e|-----------------------------------------------------------------||
B|-9-7-9-5-5---9-7-9-5--9-7-9-5-5--9-7-9-5--9-7-9-5-5---9--9--7--9~||
G|-----------------------------------------------------------------||
D|-----------------------------------------------------------------||
A|-----------------------------------------------------------------||
E|-----------------------------------------------------------------||

 Ke hacen ke me deprima me chupa un huevo la vida se hacerka un nuevo dia





e|-----------------------------------------------------||
B|-----------------------------------------------------||
G|-9-9-9-9-9-9-9-9-9-9-9-9-----------------------------|| x2
D|-9-9-9-9-9-9-9-9-9-9-9-9—-7-7--7-7-7-11-11-11-9-9-9--||
A|-7-7-7-7-7-7-7-7-7-7-7-7—-7-7--7-7-7-11-11-11-9-9-9--||
E|--------------------------5-5--5-5-5-9—-9-—9—-7-7-7--||



e|------------------------------------------||
B|-9-7-9-5-5--9-7-9-5--9-7-9-5-5--9-9-7-9-~~||
G|------------------------------------------||
D|------------------------------------------||
A|------------------------------------------||
E|------------------------------------------||
   i  ke chingen a su madre los pinches cholos



dudas, comentarios o propociciones indecorosas: [email protected]

HERRAMIENTAS ACORDESWEB:


LETRA DE LA CANCIÓN:

Ver la letra sola (sin acordes)

OTRAS VERSIONES DE LA MISMA CANCIÓN:

Ver. 2

DESCARGAR PDF / IMPRIMIR CANCIÓN



ACORDES PARA GUITARRA

PIANO UKELELE


TOP 20: Las más tocadas de Seguimos perdiendo


Acordes

Cerrar

06.08

x

74