La Mejor (Acordes)

Seguimos perdiendo

Subida por jose69

Compartir


Imprimir FAQ
+A
-A

Texto

Desplazamiento

Transportador

Color de Fondo

Archivos

-A
+A
Intro

Lento (Guitarra)

D# A#

G# A#

G|-----------------|
D|-----------------|
A|-----------------|
E|-0/4-4-3-4-6-666-|

NOTA: el bajo entra en G#

G|--------------|
D|--------------|
A|-66-----------|
E|----66-88-444-| x4

G|--------------------|
D|--------------------|
A|-6666---------------|
E|----6666-8888-44444-| x4

keria ser lo mejor del barrio
porke keria estar a tu lado
nunka dejarla de mirarla
pero no al korazon

G|--------------|
D|--------------|
A|-66-----------|
E|----66-88-444-| x4
              oi

G|--------------------|
D|--------------------|
A|-6666---------------|
E|----6666-8888-44444-| x4

ya vera lo bueno de este mundo
vida mia lo tngo todo
no tienes nada y sabes lo k kierez
pero yo... ya me aburri!!

PUENTE
G|----------------------------------|
D|----------------------------------|
A|-------8(10)8---------------------|
E|-444-88------10-444-666-8-6-8-6-8-|

G|------------------|
D|------------------|
A|-666--------------|
E|-----888-444-6666-| x4

por kerer ser diferente
por kerer ser diferente
por kerer ser diferente
por kerer ser diferenteeeeee....

G|---------------------|
D|---------------------|
A|-6666-----------6--8-|
E|-----8888-4444-4--6--| x3

G|--------------------|
D|----------------6-8-| la 4ta vez es asi
A|-6666----------4-6--|
E|-----8888-4444------|

G|------------------|---|
D|------------------|---|
A|-666--------------|-6-|
E|-----888-444-6666-|---|

por kerer ser diferente
por kerer ser diferente
por kerer ser diferente
por kerer ser diferenteeeeeeaaaaaa....

HERRAMIENTAS ACORDESWEB:


LETRA DE LA CANCIÓN:

Ver la letra sola (sin acordes)

OTRAS VERSIONES DE LA MISMA CANCIÓN:

Ver. 2 Ver. 3 Ver. 4 Ver. 5

DESCARGAR PDF / IMPRIMIR CANCIÓN



ACORDES PARA GUITARRA

PIANO UKELELE


TOP 20: Las más tocadas de Seguimos perdiendo


Acordes

Cerrar

09.43

x

41