Quisiera que supieras lo que cuesta empezar (Acordes)

Seguimos perdiendo

Subida por abrahammolina16

Compartir


Imprimir FAQ
+A
-A

Texto

Desplazamiento

Transportador

Color de Fondo

Archivos

-A
+A
parte 1
G-----------------------------------------------------------------
D-----------------------------------------------------------------
A-------9999-11-11-11-11----------------------------9999----------
E-1-7777----------------12-12-11-11-11-999-----7777------77777777-

parte -(2)-

G---------------------------------------------------------------
D---------------------------------------------------------------
A----------66-7777-9999---x3--------7777----7777----7777-9999999
E-77777777----------------------7777----7777----7777------------

parte  3

G---------------------------------------------------------------------
D------13-14-14-14-14-----------------------------10-11-11-11----9---9
A-11-11----------------------14-14-14-----14---9-9--------------------
E-----------------------12-12----------12----------------------77--77-

parte 4

G------------------------------------------------------
D------------------------------------------------------
A-----66--6-6-7777--999-77-9-----x3--------777-66-7--x3
E-7777---7-7---------------------------4444------------

-------------------------
-------------------------
-----99-11-11-13-13-11-11
------------------------

parte 5
G-----------------------------------------------------------------
D------------------------------------------9999-------------------
A-------9999-11-11-11-11------------------------------------------
E--7777-----------------12-12-12-12----7777-----------------------
scuchen bien la rola pa que les suene shido

orden
1)
2)  pinche vieja de mierda, quisiera que supieras loqe cuesta empezar.!!
3)
1)
2)
4)
3)
5)
2)


Video Clip de Quisiera que supieras lo que cuesta empezar


ACORDES PARA GUITARRA

PIANO UKELELE


TOP 20: Las más tocadas de Seguimos perdiendo


Acordes

Cerrar

04.24

x

72