Y Que? (Acordes)

Seguimos perdiendo

Subida por Edgar121581

Compartir


Imprimir FAQ
+A
-A

Texto

Desplazamiento

Transportador

Color de Fondo

Archivos

-A
+A
Bueno... la cancion es sencilla en realidad!!
Se la kiero dedikar al AMOR DE MI VIDA!!!
Lily te amo BB!!!

Bueno la cancion comienza asi
Intro 1:

e----------------------
B----------------------
G----------------------
D----------------------
A--5-5-5-5--7/9 7-5----
E----------------------

e----------------------
B----------------------
G----------------------
D----------------------
A--5-5-5-5-7-----------
E-------------9-7-----

e----------------------
B----------------------
G----------------------
D----------------------
A----------------------
E---7-5-3-7-10-7-7/9---

INTRO 2:

e----------------------
B----------------------
G----------------------
D----------------------
A--5-5-5-5--7/9 7-5----
E----------------------

e----------------------
B----------------------
G----------------------
D-------------9-12-----
A--5-5-5-5-7-----------
E----------------------

e----------------------
B----------------------
G----------------------
D----9-9-9-9-7-5-------
A----------------------
E----------------------

e----------------------
B----------------------
G----------------------
D----5-5-5-5-5-5/9-----
A----------------------
E----------------------

TODO EL VERSO CON PM

                 D5
Que locura quererte
                   G5
como te estoy queriendo
                 B5
Que parece mentira,
                 A5
pero no me arrepiento
                   D5
Tu me vuelves tan loco,
                     G5
y lo peor, soy consiente
                      B5
que He caido en tu trampa
                 A5
como el mas inocente

AKI YA SIN PM
G#5/A5
G#5/A5
A5
              D5
Me enamore ti,
y que
                   B5
Me enloquecio piel,
y que
               G5
Me arrodille
              A5
a tu amor imposible
            D5
Me enamore ti,
y que
                   B5
Yo me enferme de amor,
y que
           G5
Ciego por ti,
                  A5
pido que no me olvides.

INTRO 1

               D5
Que locura quererte
             G5
como te estoy queriendo
              B5
Y si soy tu capricho,
                 A5
no me importa saberlo
                     D5
Te has metido en mi vida,
               G5
me consumes el aire
             B5
Corazon peligroso,
                  A5
no me importa quemarme.

G#5/A5
G#5/A5
A5


       D5
Me enamore ti,
y que
                   B5
Me enloquecio piel,
y que
               G5
Me arrodille
              A5
a tu amor imposible
            D5
Me enamore ti,
y que
                   B5
Yo me enferme de amor,
y que
           G5
Ciego por ti,
                  A5
pido que no me olvides.


INTRO 1-2

Y AL FINAL TIENE UN ARREGLILLO MASOMENOS ASI...


e---------------------------
B---------------------------
G---------------------------
D----10-14-11-10-12-14-10---
A---------------------------
E---------------------------

Y TERMINA EN D5


Video Clip de Y Que?


ACORDES PARA GUITARRA

PIANO UKELELE
D5
G5
B5
A5


TOP 20: Las más tocadas de Seguimos perdiendo


Acordes

Cerrar
D5
G5
B5
A5

03.10

x

50