Velvet Alley

Strung Out

Acordes

Subida por Hexsh



Cambiar Cifrado
Americano Latino

Cambiar Tonalidad
-1 +1

Partir Pantalla Imprimir FAQ

+A
-A


Ver solo la LETRA
Velvet Alley (acoustic)-Strung Out

I'm not going to take the time to tab this out because its all just simple picking. Here are the chords

     Cm           Bb            Ab
you can't make me see what you think i should know
     Cm        Bb             Ab
you dont understand where im coming from
       Cm              Bb          Ab
we're passing through worlds no perception in time
   Cm               Bb      Ab
im not the same as when i began

Cm      Bb   Cm      Bb
show me dont tell me whats
Cm       Ab                 Bb
going on inside your little world
                Cm                  Bb
you should have never landed on the moon
             Cm                Bb
you heard we never reached the sky
     Cm                   Ab             Bb
then shed some light i'll lend a patient ear

Ab          Cm
dont let me down i gotta know
   Bb                   Cm               Bb
if something good could grow out on this rock
Ab      Cm
save me one more time
    Bb                Cm              Bb
and i'll be free from what i think it ought to be

 Riff 1
e|---------------------------------------------------------------------------|
B|---------------------------------------------------------------------------|
G|-----0---3----1----0-------------------------------------------------------|
D|-----------------------3---1----0-h-1--------------------------------------|
A|-3-3---3---3----3----3---3---3---------------------------------------------|
E|---------------------------------------------------------------------------|
(last time through arpeggio a Bb chord)

Cm   Bb  Ab
bab  ble on
      Cm  Bb Ab
could i   be wrong

e|---------------------------------|
B|---------------------------------|
G|---5-3-5--7-8-7-5----------------|
D|---5-5-5-------------------------|
A|---------------------------------|
E|---------------------------------|

   Cm                   Bb
a silhouette of you and me
     Cm                 Bb
just negative space and time
     Cm             Ab           Bb
just reference to a simpler history
    Cm                  Bb           Cm                 Bb
i'd sacrifice a million nights for a moments peace with you
  Cm              Ab        Bb
reflections to dissect reality

     Ab             Cm
it's all in what we hold as being real
         Bb                Cm                  Bb
when the symbol kills the substance then we've lost
Ab      Cm
save me one more time
    Bb                    Cm              Bb        Cm
and i'll be free from the alleyways of my heart, my heart

[Riff 1] (Cm)

Cm               Bb
im going nowhere
Cm                 Ab
im going nowhere inside this head of mine

Cm                 Bb
we're going nowhere
Cm                    Ab                 Bb
we're going nowhere inside this state of mind

e|------------------------------------|
B|------------------------------------|
G|-----8-7-5--------------------------|
D|------------8-6-5-------------------|
A|------------------------------------|
E|------------------------------------|

Ab
sit and stay awhile
Cm                   Bb          Cm       Bb
talk to me about the things that make you real
Ab                Cm                    Bb      Cm     Bb
lets forget about all that make you and me surrender,       surrender

Fade out on this
e|-----------------------|
B|---------4p3-------o---|
G|-----------------------|
D|-----------------------|
A|--3-3--------------o---|
E|-----------------------|

NUEVO FORO DE MÚSICA

¿Tienes alguna duda, consulta, pregunta, consejo o algo para compartir sobre esta canción?

¡Puedes abrir un hilo en el FORO para que la comunidad te ayude! Hacer una pregunta

ACORDES PARA GUITARRA

PIANO UKELELE
Cm
Bb
Ab


Las más tocadas de Strung Out

Cm
Bb
Ab