Animal Lover (Acordes)

Suede

Full Álbum: Suede (1993)
Subida por Jaelv47

Compartir


Cambiar Cifrado
Americano Latino

Cambiar Tonalidad
-1 +1
Imprimir FAQ
+A
-A

Texto

Desplazamiento

Transportador

Color de Fondo

Archivos

TONALIDAD, TAMAÑO, CIFRADO, SCROL.

Nos renovamos: Ahora puedes cambiar TODO haciendo clic en ICONO de la Guitarra () que aparece en la parte inferior de esta página.


LETRA CON ACORDES

(from the debut selftitled album)

tabbed by ItzikG (*)


Enjoy!


Riff A:

G|------------------|
D|----------4-4-2---|
A|----------------2-|
E|--/12-0---------|

Riff B:


G|------------------------------------------|
D|--------2-----2-----2-2-0h2-----4-----2-4-|
A|-44-2-4---2-4---2-----------2-4---2-4-----|
E|------------------0-----------------------|

Riff C:

G|--------------------------------1-----1-|
D|--------2-----2-----2-2-0h2-2-4---2-4---|
A|-44-2-4---2-4---2-----------------------|
E|------------------0---------------------|

Riff D:

G|-------------------------------------------|
D|-4-4-2h4-2h4-6-6-4h6-3h6-2-2-2242----------|
A|----------------------------------2-2-2242-|
E|-------------------------------------------|

G|-------------------------------4---|
D|-4-4-2h4-2h4-6-6-4h6-4h6-6-6-6---6-|
A|-----------------------------------|
E|-----------------------------------|

Riff E:

G|----------------------------------------|
D|-------2--------------------------------|
A|-4-4-44-4-2-2-2242----------4--4-4--4-4-|
E|-------------------2-2-2242-------------|


Intro: Riff A X 1
       Riff B X 2

Verse 1: Riff B X 3
         Riff C X 1

Chorus 1: Riff D X 1

Verse 2: Riff B X 3
         Riff C X 1

Chrous 2: Riff D X 1
          Riff E until solo

Bass and guitar solo:

Riff E X 2, then:

G|----------------------------------------|
D|-------2--------------------------------|
A|-4-4-44-4-2-2-2242----------4--44-22----|
E|-------------------2-2-2242----------44-|

G|------------------------------------------|
D|-------2-------------------------11-22-44-|
A|-4-4-44-4-2-2-2242----------4-44----------|
E|-------------------2-2-2242---------------|

G|----------------------------------------|
D|----2-----------------------------------|
A|-4~--4-2-2-2242-------------4--4-4--4-4-|
E|-------------------2-2-2242-------------|


Then Play Riff E until the end.....

Video Clip de Animal Lover


ACORDES PARA GUITARRA

PIANO UKELELE


TOP 20: Las más tocadas de Suede


Toca una Canción al Azar de Suede

Acordes

Cerrar

04.43

x

46