So Young (Acordes)

Suede

Full Álbum: Suede (1993)
Subida por Grober

Compartir


Cambiar Cifrado
Americano Latino

Cambiar Tonalidad
-1 +1
Imprimir FAQ
+A
-A

Texto

Desplazamiento

Transportador

Color de Fondo

Archivos

TONALIDAD, TAMAÑO, CIFRADO, SCROL.

Nos renovamos: Ahora puedes cambiar TODO haciendo clic en ICONO de la Guitarra () que aparece en la parte inferior de esta página.


LETRA CON ACORDES

eb|--2--------------0--|--------0---0-----------2-2-x-2-0---|
bb|--2------2----2--2--|---2/3---------3/2---0--2-2-x-2-0---|
gb|--2----2----2----2--|------------------------2-2-x-2-1---|
db|--4--4-----------2--|------------------------4-4-x-4-2---|
ab|--4--------------0--|------------------------4-4-x-4-2---|
eb|--2-----------------|------------------------2-2-x-2-0---|

eb|---2---2-----------0---------0---------5-------5-----5--4h5--4h5--4h5--4-|
bb|---2------2--------2---2/3-------5/7------5/7-----7----------------------|
gb|---2---------2-----2-----------------------------------------------------|
db|---4-----------4---2-----------------------------------------------------|
ab|---4---------------0-----------------------------------------------------|
eb|---2---------------------------------------------------------------------|

Verso 1:

F#m              A Asus4 A
Come to my house tonight
D                                 F#m
We can be together in the nuclear sky
E           F#m                 A Asus4 A
And we will dance in the poison rain
D                                 B
And we can stay a while in heaven today

Refrão:

F#m     E    D      A
        stay together
F#m     E              D
        stay together  these days are ours
F#m   E    D     A
Let's stay together
F#m        E         D       A
Two hearts under the skyscraper

e|-----------------------------------------------------------------------|
b|-----------------------------------------------------------------------|
g|--4b5--4--2--4--2----------2-2~~-----------------------------2-4-4b5-4-|
d|------------------4--2--4-------------2-4v--4--2---------2-4-----------|
a|---------------------------------------------------4-2-4---------------|
e|-----------------------------------------------------------------------|

G                          A
There's a time bomb in the high rise
C#m                    G
There's a blue suburban dream
Bm                C#m
Will i see you up in paradise
F           C       D
Or have you come to cacth me

Video Clip de So Young


ACORDES PARA GUITARRA

PIANO UKELELE
F#m
A
Asus4
D
E
B
G
C#m
Bm
F
C


TOP 20: Las más tocadas de Suede


Toca una Canción al Azar de Suede

Acordes

Cerrar
F#m
A
Asus4
D
E
B
G
C#m
Bm
F
C

14.55

x

203