Compartir


Imprimir FAQ
+A
-A

Texto

Desplazamiento

Transportador

Color de Fondo

Archivos

-A
+A
	  

Intro:
 
hide this tab 
----------------------------------------| 
--9b9--8b8--7-6-5-----------------------| 
----------------------------------------| (x3) 
----------------------------------------| 
----------------------------------------| 
----------------------------------------| 

------------------10--12----------------| 
--9b9--8b8--9s12------------------------| 
----------------------------------------|  
----------------------------------------| 
----------------------------------------| 
----------------------------------------| 


A                                      C#m                          
Oh, through the red lights, the amber, the silent mannequins 
G                              Bm   ( D E D ) 
The crumpled mothers in their seats 
A                                       C#m 
Pull into morning through the stations, the smell of chemicals 
G                                    Bm 
Do I want you because you're outside reach? 

E            
Oh, it's all there for us 
C#m 
Oh, it belongs to us 
A                                C    ( D ) 
Oh, and there's nothing we can't reach 
E  
Oh, we hold it all in our  
C#m 
fist, Like kids, like savages 
F# 
And we'll run in the playground 
D                G G# A 
If you just stay with me 

Oh, through the red lights, the amber, I steal a look at you 
Behind the wheel of another car 
Oh, and nothing matters but these moments, I conjure the imagery 
Of a different life, another path 

< Repeat Chorus > 


Solo
 
hide this tab D                                                          E 
------------------------------------------------------------------12-----------12------12----12b-12--| 
--7---7---7---7s9---9---9---10---10---10---12---12---12----------12------10-12------12----12---------| 
----7---7---7-----7---7---7---7----7----7----11---11---11--11s13------13-----------------------------|  
-----------------------------------------------------------------------------------------------------| 
-----------------------------------------------------------------------------------------------------| 
-----------------------------------------------------------------------------------------------------| 

C# D D C# D D C#  E 
------------------------| 
--14s15-15--14b-14------| 
--13s14-14--------------|  
------------------------| 
------------------------| 
------------------------| 

< Repeat Chorus > 
  

Video Clip de Like Kids


ACORDES PARA GUITARRA

PIANO UKELELE
A
C#m
G
Bm
D
E
C
F#
G#
C#


TOP 20: Las más tocadas de Suede


Toca una Canción al Azar de Suede

Acordes

Cerrar
A
C#m
G
Bm
D
E
C
F#
G#
C#

10.01

x

610