Compartir


Cambiar Cifrado
Americano Latino

Cambiar Tonalidad
-1 +1
Imprimir FAQ
+A
-A

Texto

Desplazamiento

Transportador

Color de Fondo

Archivos

TONALIDAD, TAMAÑO, CIFRADO, SCROL.

Nos renovamos: Ahora puedes cambiar TODO haciendo clic en ICONO de la Guitarra () que aparece en la parte inferior de esta página.


LETRA CON ACORDES

(verse)

G|------------------------------------------|
D|---------------------------------7-7-8-888|
A|-7-7-7-7-------------10-10-10-10----------|
E|---------0h6-6-6-6p0----------------------|

(chorus)
(part A)
G|-------------------------------------------------------------------------|
D|---------5------7-5---------------5----------------------5-------7-5-----|
A|-7-7-5h7---3-33-----7-5-7-7-7-5h7---3-3-3-/-10--7-7-5h7---3-3-3-----7-5-|
E|-------------------------------------------------------------------------|

(part B)
G|-------------------|
D|-7-7-7-7-5h7p5-----|
A|---------------7-5-|
E|-------------------|

(play Chorus X2 and second time round play Part B twice at the end)

1:49 - 2:13
G|-------------------------------------------------------------------|
D|-------------------------------------------------------------------|
A|-7-7777-7777-7777777777-7777-7777-777777777-0-0000-0000-000000000--|
E|-------------------------------------------------------------------|
               ^^^^^^^^^^           ^^^^^^^^^             ^^^^^^^^^

G|-------------------------|
D|-------------------------|
A|-5-5555-5555-5555555557--|
E|-------------------------| X2
               ^^^^^^^^^^

(play notes marked with ^ in triplets)

2:17
G|-------------------------------------------------------------------------|
D|-------------------------------------------------------------------------|
A|---------3-------5-3-------------3---------------------3-------5-3-------|
E|-5-5-3h5---1-1-1-----5-3h5-5-3h5---1-1-1-/-8--5-5-3h5---1-1-1-----5-3---|

G|--------------|
D|--------------|
A|-5-5-5-5-5-5--|
E|--------------|

Video Clip de Bad Blood


ACORDES PARA GUITARRA

PIANO UKELELE


TOP 20: Las más tocadas de Supergrass


Toca una Canción al Azar de Supergrass

Acordes

Cerrar

17.45

x

76