Compartir


Cambiar Cifrado
Americano Latino

Cambiar Tonalidad
-1 +1
Imprimir FAQ
+A
-A

Texto

Desplazamiento

Transportador

Color de Fondo

Archivos

TONALIDAD, TAMAÑO, CIFRADO, SCROL.

Nos renovamos: Ahora puedes cambiar TODO haciendo clic en ICONO de la Guitarra () que aparece en la parte inferior de esta página.


LETRA CON ACORDES

(intro)
G|----------------------------------------------12-11-9------------------|
D|------------------------------------------------------12-9-------------|
A|------7---7-7-------7---7-7-------7---7-7------------------12-10-------|
E|-----------------------------------------------------------------------|

(verse 3x)
G|--------------------12-11-12------------------------------------------|
D|------------------------------------------------11--12----------------|
A|----5-7---7-7----------------(0)5-7---5-7------------------------------|
E|-------------(0)-------------------------------------------------------|

G|--------------------12-11-12-----------------12-11-9------------------|
D|----------------9-------------------------------------12-9-------------|
A|-(0)5-7---7-7----------------(0)5-7---5-7------------------12-10-------|
E|-----------------------------------------------------------------------|

(refrão)
G|---------------------------------------------------------11--11--9----|
D|-----------------------------------------------------------------------|
A|----9-9---7-9-9-----12-12---11-12-12--(0)9-9---7-9-9-------------------|
E|-----------------------------------------------------------------------|

G|-----------------------------------------------------------------------|
D|-----------------------------------------------------------------------|
A|----9-9---7-9-9-----12-12---11-12-11-9--------------------------------|
E|--------------------------------------------3-----3-------5-----5------|

G|-----------------------------------------------------------------------|
D|-----------------------------------------------------------------------|
A|----3-----3-------5-----5----------------------------------------------|
E|----------------------------3/123---7---------------------------------|

(ponte)
G|--------------------12-11-12-----------------12-11-9------------------|
D|------------------------------------------------------12-9-------------|
A|----5-7---7-7-------------------5-7---5-7------------------12-10-------|
E|-----------------------------------------------------------------------|

(verse 2x)

(refrão #2)                                                                  -
G|---------------------------------------------------------11--11--9----|  |
D|-----------------------------------------------------------------------|  |
A|----9-9---7-9-9-----12-12---11-12-12--(0)9-9---7-9-9-------------------|  |
E|-----------------------------------------------------------------------|  |
                                                                            > x2
G|-----------------------------------------------------------------------|  |
D|-----------------------------------------------------------------------|  |
A|----9-9---7-9-9--------------------------------------------------------|  |
E|--------------------5-5---4-5-4-8---0-3-----3-------5-----5-----------|  |
                                                                           -
G|-----------------------------------------------------------------------|
D|-----------------------------------------------------------------------|
A|----3-----3-------5-3-0-5-/--------------------------------------------|
E|-------------------------------------7---------------------------------|

(break)
G|-----------------------------------------------------------------------|
D|-----------------------------------------------------------------------|
A|-----------------------------------------------------------------------|
E|----5-5-5-5-5-5-5-5-5-5-5-5-5-5-5-5-5-5-5-5-5-5-5-5-5-5-5-5-5-5-5-5----|

G|-----------------------------------------------------------------------|
D|----------------------4---5---6---7------------------------------------|
A|-----------------------------------------------------------------------|
E|----5-5-5-5-5-5-5-5-5--------------------------------------------------|

(verse)

(refrão 3)                                                              -
G|---------------------------------------------------------11--11--9----|  |
D|-----------------------------------------------------------------------|  |
A|----9-9---7-9-9-----12-12---11-12-12--(0)9-9---7-9-9-------------------|  |
E|-----------------------------------------------------------------------|  |
                                                                            > x2
G|-----------------------------------------------------------------------|  |
D|-----------------------------------------------------------------------|  |
A|----9-9---7-9-9-----12-12---11-12-11-----------------------------------|  |
E|-------------------------------------12---0-3-----3-------5-----5-----|  |
                                                                           -
G|-------------------------------------------------------------------------------|
D|-------------------------------------------------------------------------------|
A|----3-----3-------5-3-0-5-/------------------------------3-----3-------5-----5-|
E|-----------------------------3-----3-------5-3-0-5-----------------------------|

Video Clip de Outside


ACORDES PARA GUITARRA

PIANO UKELELE


TOP 20: Las más tocadas de Supergrass


Toca una Canción al Azar de Supergrass

Acordes

Cerrar

22.53

x

82