Diamond Hoo Ha Man (Acordes)

Supergrass

Full Álbum: Diamond Hoo Ha (2008)
Subida por Machin

Compartir


Cambiar Cifrado
Americano Latino

Cambiar Tonalidad
-1 +1
Imprimir FAQ
+A
-A

Texto

Desplazamiento

Transportador

Color de Fondo

Archivos

TONALIDAD, TAMAÑO, CIFRADO, SCROL.

Nos renovamos: Ahora puedes cambiar TODO haciendo clic en ICONO de la Guitarra () que aparece en la parte inferior de esta página.


LETRA CON ACORDES

(verse riff)

(guitar 1 and 2)
E|-------------------------------------------------|
B|-------------------------------------------------|
G|-----7--7-5---------------5--7-5-----------------|
D|------------7---------5h7--------7---------------|
A|--5-----------8~-------------------5------3-3-4--|
E|-------------------------------------------------|  x5

E|---------------------------------------------------|
B|---------------------------------------------------|
G|---------------7--7-5---------------5--7-5---------|
D|----------------------7---------5h7--------7-------|
A|--...-3-3-4-5-----------8~-------------------3/5---|
E|---------------------------------------------------|  x1

(guitar 2 enters after riff is played 4 times)

(verse)

(guitar 1)
E|---------------------------------------------------|
B|---------------------------------------------------|
G|---------5--7--------5--7-----------5-----------5--|
D|------7-----------7-----------5--7--------5--7-----|
A|--5-----------5-----------8-----------8------------|
E|---------------------------------------------------|  x2

(guitar 2)
E|----5----5------5----5------5----5------5----5-----|
B|----6----6------6----6------6----6------6----6-----|
G|----7----7------7----7------5----5------5----5-----|
D|---------------------------------------------------|
A|---------------------------------------------------|
E|---------------------------------------------------|  x2

(pre-chorus)

(guitar 1)
E|---------------------------------------|
B|---------------------------------------|
G|---5-----------------------------------|
D|---5----------------5------------------|
A|---3----------------5------------------|
E|--------------------3------------------|  x1

(guitar 2)
E|--/3-----------------------------------|
B|--/5---------------/12-----------------|
G|--/5---------------/12-----------------|
D|-------------------/12-----------------|
A|---------------------------------------|
E|---------------------------------------|  x1

(chorus)
E|----------------------------------------------------------------------------------|
B|----------------------------------------------------------------------------------|
G|--5/7----10------------------------5-7-----10------------------------10-10--------|
D|--5/7----10--10-10------8-8-7-5--5-5-7-----10--10-10------8-8-7-5----10-10-10-12--|
A|--3/5----8---10-10------8-8-7-5--5-3-5-----8---10-10------8-8-7-5----8--8--10-12--|
E|-------------8--8-------6-6-5-3--3-------------8--8-------6-6-5-3----------8--10--|
                                                                                    x2
(verse 2 riff)

(guitar 1  -  same as before)
(slide guitar)
E|----------------------------------------------------------------------------------|
B|----------7---------------------5------------------7----------/12-10--------------|
G|------7-----7----------------5----5------------7-----7---------------10/12-10-----|
D|--/7----7-----7-/10------/5----5----5-/7----/7---7-----7-/10------------------/12-|
A|----------------------------------------------------------------------------------|
E|----------------------------------------------------------------------------------|

(bridge) (guitar tuned to Drop D)
E|---------------------------------------------------|
B|---------------------------------------------------|
G|---------------------------------------------------|
D|---------------------------------------------------|
A|--3---0-------3---0-------5---3--0----5---3--0-----|
D|---------5--3--------5--3-----------0-----------0--|

(in standard tuning)
D|------------------------------------0-----------0--|
A|--3---0-------3---0-------5---3--0----5---3--0-----|
E|---------3--1--------3--1--------------------------|

(prechorus 2)

Video Clip de Diamond Hoo Ha Man


ACORDES PARA GUITARRA

PIANO UKELELE
D


TOP 20: Las más tocadas de Supergrass


Toca una Canción al Azar de Supergrass

Acordes

Cerrar
D

23.59

x

246