Compartir


Cambiar Cifrado
Americano Latino

Cambiar Tonalidad
-1 +1
Imprimir FAQ
+A
-A

Texto

Desplazamiento

Transportador

Color de Fondo

Archivos

TONALIDAD, TAMAÑO, CIFRADO, SCROL.

Nos renovamos: Ahora puedes cambiar TODO haciendo clic en ICONO de la Guitarra () que aparece en la parte inferior de esta página.


LETRA CON ACORDES

Intro:

E|-----------------------|
B|---3-3--4-4--5-5--4-4--|
G|---4-4--4-4--4-4--4-4--|
D|---5-5--5-5--5-5--5-5--|  Repeated
A|-----------------------|
E|-----------------------|


Verse 1:

Wait a minute now you just can't run away
You got no money and you got no place to stay
Things are bad but theres always another way
G
How would you know if you never ever say me


Pre - Chorus:

     C                                 Cm
E|-----------------------------------------------------------------------------|
B|-----------------------------------------------------------------------------|
G|-----------------------------------------------------------------------------|
D|------5--7--5--7b--7--5--7--5------5--7--5--7b--7--5--7--5--0----------------|
A|---7---------------------------------6---------------------------------------|
E|-----------------------------------------------------------------------------|
     Oh no when I look at you I scream


Chorus:

D7
Why you looking so crazy 
D7                                        G
Why you looking so lonely for love
G                               Em7
What do you wanna be now  

D7
Why you looking so crazy 
D7                                        G
Why you looking so lonely for love
G                                Em7
What do you wanna see now  


Bridge:
D7
Wait a minute is all wrong
D7
Wait a minute its all gone wrong


Verse 2:

Wait a minute now you just can't hide away 
You got no money but you got no face to save
You think its bad but theres always another way
G
How would you know if you never ever saw me

Pre-Chorus

Chorus

Ending:

G                            Em7   Eb
What do you wanna be now oooooh  Yeah
G                         Em7  Eb
What do you wanna see  ooooooh Yeah
G                       Em7  Eb
What do you wanna be  ooooooh Yeah
G                         Em7  Eb
What do you wanna feel  oooooooh Yeah

-- [ acordes ] --

C = x32010
D7 = x00212
G = 320022
Cm = 335543
Em7 = 020000
Eb = x65343 ou x68886

Video Clip de Mansize Rooster


ACORDES PARA GUITARRA

PIANO UKELELE


TOP 20: Las más tocadas de Supergrass


Toca una Canción al Azar de Supergrass

Acordes

Cerrar

11.16

x

206