Compartir


Cambiar Cifrado
Americano Latino

Cambiar Tonalidad
-1 +1
Imprimir FAQ
+A
-A

Texto

Desplazamiento

Transportador

Color de Fondo

Archivos

TONALIDAD, TAMAÑO, CIFRADO, SCROL.

Nos renovamos: Ahora puedes cambiar TODO haciendo clic en ICONO de la Guitarra () que aparece en la parte inferior de esta página.


LETRA CON ACORDES

Obs.: Os riffs 1 e 2 podem ser substituídos por vocalização. 

Introdução: (A D#)x3 C5 D5 D#5 F5 (G# A D#)x4

         G# A        D#            G# A
Got up today, what a day, thanks a million
D#                 G# A           D#            G# A    D#
  I spent too much time wondering why I got an opinion, yeah
C                         G#
 I know you wanna try and get away
             G                         C5 D5 D#5 F5 (G# A D#)x2
But it's the hardest thing you'll ever know
           G# A
Waiting in line
         D#
Terrible time
       G# A
Over familiar
D#                 G# A
  Well take them away
                   D#
They've nothing to say
                 G# A     D#
They're over the hill, yeah
C                         G#
 I know you wanna try and get away
             G                         C5 D5 D#5 F5
But it's the hardest thing you'll ever know
(C F) x3 (Solo 1 na guitarra 2 acompanhando.)
D#        A
Trying to get at you
D#        A
Trying to get at you
(C F)x2 C Cm (Solo 2 na guitarra 2 acompanhando.)
D#        A
Trying to get at you
D#        A
Trying to get at you
D#        A
Trying to get at you
D#        A         (A# C oscilando rápido entre essas duas posições muitas vezes.)
Trying to get at you
Solo 3
(G# A D#) X4 (Solo 4 na guitarra 2 acompanhando)
C                         G#
 I know you wanna try and get away
             G                         C5 D5 D#5 F5
But it's the hardest thing you'll ever know
C                         G#
 I know you wanna try and get away
             G                         C5 D5 D#5 F5 F#5 (A# C oscilando rápido
But it's the hardest thing you'll ever know              entre essas duas posições muitas 
                                                         vezes até o final da música.)
Solo 1:

E|-------------------------------------------------
A|-------------------------------------------------
D|-------------12-10-------------------------12-10-
G|----12----10----------12----10----12----10-------
B|-13----10----------13----10----13----10----------
E|-------------------------------------------------

Solo 2:

E|-------------------------------------------
A|-------------------------------------------
D|-------------12-10-------------------------
G|----12----10----------12----10----12-------
B|-13----10----------13----10----13----10-13-
E|-------------------------------------------

Solo 3:

E|-05-05-05-05-05----------------08-
A|----------------06-06-06-06-05----
D|----------------------------------
G|----------------------------------
B|----------------------------------
E|----------------------------------

Solo 4:

E|----------------------------------------------------------------------------
A|----------------------------------------------------------------------------
D|-------------------------------------------------------------------10-07-10-
G|-09-09-09-10-10-10-10-10-09-09-09-09-09-10-10-10-10-10-09-09-09-07----------
B|----------------------------------------------------------------------------
E|----------------------------------------------------------------------------

Video Clip de Richard III


ACORDES PARA GUITARRA

PIANO UKELELE
A
D#
C5
D5
D#5
F5
G#
C
G
F
Cm
A#
F#5


TOP 20: Las más tocadas de Supergrass


Toca una Canción al Azar de Supergrass

Acordes

Cerrar
A
D#
C5
D5
D#5
F5
G#
C
G
F
Cm
A#
F#5

13.37

x

239