Compartir


Imprimir FAQ
+A
-A

Texto

Desplazamiento

Transportador

Color de Fondo

Archivos

-A
+A

 
To: *
Subject: /v/*

--------------------------
[Obviously, this is for the instrumental thing at the end of _Solitude_
 _Standing_, since the one with words doesn't really have chords.  It's
 not quite the same rhythm, either.  This tab is really here just to show
 the melody; play it with whatever fingerings you want.]

[Actually in Fm; capo 1.]

       Em               C                Em               C
----|----------------|----------------|----------------|----------------|
----|----------------|----------------|----------------|----------------|
----|0-4-----0-4---4-|2=0-2=02--0-----|0-4-----0-4---4-|2=0-2=02--------|
D 2-4-|----2-4-----2---|------------2-4-|----2-4-----2---|------------2-1-|
----|----------------|----------------|----------------|----------------|
----|----------------|----------------|----------------|----------------|
  ^ .  ^ . ^ . ^ . ^ .  ^ . ^ . ^ . ^ .  ^ . ^ . ^ . ^ .  ^ . ^ . ^ . ^ .

  G                F(b5)            Em               B7
----------------|----------------|----------------|----------------|
----------------|--0-0---1=0-----|0=1-----0=1---1-|1=0-0---0-------|
--4-4-2-4-2-----|------2-----0=2-|----0=2-----0---|------2---------|
D 0-----------0---|----------------|----------------|----------------|
--------------4-|3---------------|----------------|----------------|
----------------|----------------|----------------|----------------|
  ^ . ^ . ^ . ^ .  ^ . ^ . ^ . ^ .  ^ . ^ . ^ . ^ .  ^ . ^ . ^ . ^ .

Video Clip de Toms Diner


ACORDES PARA GUITARRA

PIANO UKELELE


TOP 20: Las más tocadas de Suzanne Vega


Acordes

Cerrar

02.05

x

187