I Love You
Tanita Tikaram
Acordes

Subida por PianistaYolla
Álbum: Ancient Heart ( 1988)


Más Versiones

Cambiar Cifrado
Americano Latino

Cambiar Tonalidad
-1 +1

Partir Pantalla Imprimir FAQ

+A
-A


Ver solo la LETRA

#

Date: Wed, 21 Feb 96 09:19:49 1000
From: glenn
Subject: i love you tanika tikaram

I LOVE YOU

|-----3-0---3-3-2h3h3-----0---0------|---0---3---3-3-2h3h3------0----0----|
|---------------------3--3---3-------|-----3----------------3--3----3-----|
|------------------------------------|------------------------------------|
|-0h2-----------0--------------------|-2-------------0--------------------|
|---------3--------------------------|---------3--------------------------|
|-----------------------3---2--------|------------------------3----2------|

|-----3-0---3-3-2h3h3-----0---0------|---0---3---3-3-2h3h3------0----0----|
|---------------------3--3---3-------|-----3----------------3--3----3-----|
|------------------------------------|------------------------------------|
|-2-------------0--------------------|-2-------------0--------------------|
|---------3--------------------------|---------3--------------------------|
|-----------------------3---2--------|------------------------3----2------|
Johnny was a peculiar guy etc.

|------------------------------------|----------------------7-------------|
|--3-----5-----7---------------------|--3-----5-----7--------7-----------|
|------------------------------------|------------------------------------|
|------------------------------------|------------------------------------|
|------------------------------------|------------------------------------|
|------------------------------------|------------------------------------|
I love you etc.


instrum.
|------------------------------------|------------------------------------|
|----3-----3-----3------3------3-----|----3------3------3-----3-----3-----|
|------------------------------------|------------------------------------|
|-0-----------0-----2----------------|-0------------0------2--------------|
|-------2------------------3---------|-------2-------------------3--------|
|------------------------------------|------------------------------------|

|------------------------------------|
|----3------3-------3-------3--------|
|------------------------------------|
|------------------------------------|
|-2-----0----------------------------|
|---------------3-------2------------|

Return to main sequence


*
---------------------------------161172041912535--

ACORDES PARA GUITARRA

PIANO UKELELE


COMENTARIOS

Aún no hay comentarios,

¡escribe el primero!

Escribe una pregunta, duda o comentario sobre esta canción, te responderemos a la brevedad.

Las más tocadas de Tanita Tikaram

Toca una Canción al Azar de Tanita Tikaram