Free For All
Ted Nugent
Acordes

Subida por Debra
Álbum: Free-For-All ( 1976)



Cambiar Cifrado
Americano Latino

Cambiar Tonalidad
-1 +1

Partir Pantalla Imprimir FAQ

+A
-A
-|-0-0-0-0-|-0-0-0-0-0-0-0-|----------------------|-00000-00000-|-------------
-|-0-0-0-0-|-0-0-0-0-0-0-0-|----------------------|-00000-00000-|-------------
-|-9-9-9-9-|-98/9-9-9-9-9-|----------------------|-77777-77799-|-------------
-|-9-9-9-9-|-98/9-9-9-9-9-|----------------5-6---|-77777-77799-|-999999999---
-|-7-7-7-7-|-76/7-7-7-7-7-|----------5-6-7-------|-55555-55577-|-999999999---
-|-0-0-0-0-|-0-0-0-0-0-0-0-|--4-5-6-7-------------|-------------|-777777777---
Intro main riff ascending riff chorus ending (1&3)

-|----------|-----------------------|--------------------|--------------------
-|----------|-12b14-14-14-r12-12-12-|-12-15--------------|--------------------
-|-14b------|-----------------------|-------13-12-13-----|----------14v-------
-|----------|-----------------------|----------------14v-|-14-12-14-----14----
-|----------|-----------------------|--------------------|--------------------
-|----------|-----------------------|--------------------|--------------------
ending 2 solo one (repeat first riff a couple times)

-----------|--------------------|-------------------------------------------|-
-----------|-12-15--------------|-------------15b-15b-15-12-----------------|-
-------14v-|-------13-12-13-----|-12-13-12-13---------------13-12-13--------|-
-12-14-----|----------------14v-|------------------------------------14-14v-|-
-----------|--------------------|-------------------------------------------|-
-----------|--------------------|-------------------------------------------|-


-----------------------|-15b-12b--------------------------------------12b-----
-------15b-15b-12-15bv-|------------------------------------------------------
-13-12-----------------|---------14b16r14-12v-12-13-12-13-12-13-12------------
-----------------------|-------------------------------------------14---------
-----------------------|------------------------------------------------------
-----------------------|------------------------------------------------------
guitar only

-12b-|-15b17-17-17-r15-15-15-|-15bv-12bv--------------|-15bv-12----12bv-|-----
-----|-----------------------|------------------------|---------15------|-----
-----|-----------------------|-----------14b16r14-12v-|-----------------|-----
-----|-----------------------|------------------------|-----------------|-----
-----|-----------------------|------------------------|-----------------|-----
-----|-----------------------|------------------------|-----------------|-----
solo two (repeat first riff a few times)

-15bv-12b---------------15-12-------15-|-15b-15b-15b-15b-----------------|----
------------------------------15-13----|---------------------------------|----
-----------14b16r14-12v----------------|-----------------12-13-12--------|----
---------------------------------------|--------------------------14-14v-|----
---------------------------------------|---------------------------------|----
---------------------------------------|---------------------------------|----


-15b-15b-15b-15b------------|-15b-15b-15b-15b-----------------|-15b-15b-15b---
-----------------------15bv-|---------------------------------|---------------
-----------------12-13------|-----------------12-13-12--------|---------------
----------------------------|--------------------------14-14v-|---------------
----------------------------|---------------------------------|---------------
----------------------------|---------------------------------|---------------


-15b------------|-17b--17b-15v-|-------------|--------------------------------
-----------15bv-|--------------|-17b-17b-15v-|--------------------------------
-----12-13------|--------------|-------------|--------------------------------
----------------|--------------|-------------|--------------------------------
----------------|--------------|-------------|--------------------------------
----------------|--------------|-------------|--------------------------------
(fading makes notes unclear)

ACORDES PARA GUITARRA

PIANO UKELELE


COMENTARIOS

Aún no hay comentarios,

¡escribe el primero!

Escribe una pregunta, duda o comentario sobre esta canción, te responderemos a la brevedad.

Las más tocadas de Ted Nugent

Toca una Canción al Azar de Ted Nugent