Hey Baby
Ted Nugent
Acordes

Subida por Nayade
Álbum: Ted Nugent ( 1975)



Cambiar Cifrado
Americano Latino

Cambiar Tonalidad
-1 +1

Partir Pantalla Imprimir FAQ

+A
-A


Ver solo la LETRA

From: Dave Mosley
Date: Tue, 01 Aug 95 10:31:00 PDT


Epic EK33692

( I'm neither singer nor lyricist - the words are a best guess. )


Intro 3x

||-----------------------------------------------------------||
||-----------------------------------------------------------||
||*---------------------------------------------------------*||
||*------------------------------------------------5--6--7--*||
||----5--6--7-----5--6--7-----5--6--7-----5--6--7------------||
||-------------0-----------0-----------0---------------------||

|-----------------------------------------------------|
|-----------------------------------------------------|
|-----------------------------------------------------|
|-----------------------------------------------------|
|-5--6--7-----5--6--7-----5--6--7---------------------|
|----------0-----------0------------------------------|


8x - 1st 4 with lead only


||----------------------------------------------------||
||----------------------------------------------------||
||*--------------------------------------------------*||
||*--------------2--------------------------------2--*||
||---2-----------------2--5--2--4--2-----2------------||
||---0-----2--3-----------------------------2--3------||

Hey baby, tell me why you hangin 'round
Aint got time for kissin I'm too busy messin in this town
All you pretty women, you're so far an' in between
I don't need no fancy types I need the ones that's clean


|--------------------------------------------------|
|--------------------------------------------------|
|---------------2--------------------------------2-|
|---2-----------------2--5--2--4--2-----2----------|
|---0-----2--3-----------------------------2--3----|
|--------------------------------------------------|

Hey baby, jump into the back of my Ford


|-------------------------------------------------|
|-------------------------------------------------|
|-------------2-----------------------------------|
|-2-----------------2--5--2--4--2-----2--------2--|
|-0-----2--3--------------------------------------|
|----------------------------------------2--3-----|

I'm gonna give you a ride baby, you never could afford

|-------------------------------------------------|
|-------------------------------------------------|
|-------------------------------------------------|
|-------------2--------------------------------2--|
|-2-----------------2--5--2--4--2-----2-----------|
|-0-----2--3-----------------------------2--3-----|

Hey baby

|-------------------------------------------------|
|-------------------------------------------------|
|-------------------------------------------------|
|-------------2--------------------------------2--|
|-2-----------------2--5--2--4--2-----2-----------|
|-0-----2--3-----------------------------2--3-----|

Hey baby So

|--------------------------|--------------------------------|
|--------------------------|--------------------------------|
|--------------------------|--------------------------------|
|-4-4----6-6----7-7----8-8-|-9-9----11-11----12-12----13-14-|
|--------------------------|--------------------------------|
|-2-2----4-4----5-5----6-6-|-7-7----9--9-----10-10----11-12-|

Follow me down the miles baby I'll show you the real love game.

6x
||---------------------------------------------------||
||---------------------------------------------------||
||*-------------------------------------------------*||
||*-------------2--------------------------------2--*||
||--2-----------------2--5--2--4--2-----2------------||
||--0-----2--3-----------------------------2--3------||

Yes I will
( lead riff )
Hey baby, jump into the back of my car
I'm gonna hug and kiss you baby I'm gonna stir your heart
All you pretty women, you're so far an' in between
I don't need no fancy types I need the ones that's clean


|--------------------------------------------------|
|--------------------------------------------------|
|---------------2--------------------------------2-|
|---2-----------------2--5--2--4--2-----2----------|
|---0-----2--3-----------------------------2--3----|
|--------------------------------------------------|

Hey baby, I don't want you hangin 'round

|-------------------------------------------------|
|-------------------------------------------------|
|-------------2-----------------------------------|
|-2-----------------2--5--2--4--2-----2--------2--|
|-0-----2--3--------------------------------------|
|----------------------------------------2--3-----|

I ain't got time for kissin I'm too busy steppin in this town


|-------------------------------------------------|
|-------------------------------------------------|
|-------------------------------------------------|
|-------------2--------------------------------2--|
|-2-----------------2--5--2--4--2-----2-----------|
|-0-----2--3-----------------------------2--3-----|

Hey baby

|-------------------------------------------------|
|-------------------------------------------------|
|-------------------------------------------------|
|-------------2--------------------------------2--|
|-2-----------------2--5--2--4--2-----2-----------|
|-0-----2--3-----------------------------2--3-----|

Hey baby So

|--------------------------|--------------------------------|
|--------------------------|--------------------------------|
|--------------------------|--------------------------------|
|-4-4----6-6----7-7----8-8-|-9-9----11-11----12-12----13-14-|
|--------------------------|--------------------------------|
|-2-2----4-4----5-5----6-6-|-7-7----9--9-----10-10----11-12-|

Follow me down the miles baby I'll show you the real love game.

|-------------------------------------------------|
|-------------------------------------------------|
|-------------------------------------------------|
|-------------2--------------------------------2--|
|-2-----------------2--5--2--4--2-----2-----------|
|-0-----2--3-----------------------------2--3-----|

You know what I'm talkin about baby

|------------------------------------|
|------------------------------------|
|------------------------------------|
|-------------2----------------------|
|-2-----------------2----4----5----6-|
|-0-----2--3--------0----2----3----4-|

Here we go

|------------------------|-----------------------|-------------------|
|------------------------|-----------------------|-------------------|
|*-----------------------|-----------------------|-------------------|
|*-2-2---4-4---5-5---4-4-|-2-2---4-4---2-2---4-4-|-------5-5---7---5-|
|--0-0---0-0---0-0---0-0-|-0-0---0-0---0-0---0-0-|-2-2---7-7---5---7-|
|------------------------|-----------------------|-0-0---------------|

2x
|--------------------|-----------------------|-----------------------|
|--------------------|-----------------------|-----------------------|
|-------------------*|-----------------------|-----------------------|
|-------5-5---7---5-*|-2-2---4-4---5-5---4-4-|-2-2---4-4---2-2---4-4-|
|-2-2---7-7---5---7--|-0-0---0-0---0-0---0-0-|-0-0---0-0---0-0---0-0-|
|-0-0----------------|-----------------------|-----------------------|

|-----------------------|-----------------------------|
|-----------------------|-----------------------------|
|-----------------------|-----------------------------|
|-4-4-4---7-7-7---8--9--|---------2-----------2---8-9-|
|-2-2-2---5-5-5---6--7--|-2-5-2-5-----2-5-2-5-----6-7-|
|-----------------------|-----------------------------|

|----------------------------------|-----------------------------|
|----------------------------------|-----------------------------|
|----------------------------------|-----------------------------|
|----------2-------------------8-9-|---------2-----------2---8-9-|
|--2-5-2-5-----2-5p2p0---------6-7-|-2-5-2-5-----2-5-2-5-----6-7-|
|----------------------3b4---0-----|-----------------------------|

|------------------------------------|
|------------------------------------|
|------------------------------------|
|----------2-------------------------|
|--2-5-2-5-----2--2----4----5----6---|
|-----------------0----2----3----4---|

|-----------------------|-----------------------|-------------------|
|-----------------------|-----------------------|-------------------|
|-----------------------|-----------------------|-------------------|
|-2-2---4-4---5-5---4-4-|-2-2---4-4---2-2---4-4-|-------5-5---7---5-|
|-0-0---0-0---0-0---0-0-|-0-0---0-0---0-0---0-0-|-2-2---7-7---5---7-|
|-----------------------|-----------------------|-0-0---------------|

|-------------------|-----------------------|-----------------------|
|-------------------|-----------------------|-----------------------|
|-------------------|-----------------------|-----------------------|
|-------5-5---7---5-|-2-2---4-4---5-5---4-4-|-2-2---4-4---2-2---4-4-|
|-2-2---7-7---5---7-|-0-0---0-0---0-0---0-0-|-0-0---0-0---0-0---0-0-|
|-0-0---------------|-----------------------|-----------------------|

|-----------------------|
|-----------------------|
|-----------------------|
|-4-4-4---7-7-7---8--9--|
|-2-2-2---5-5-5---6--7--|
|-----------------------|

|-------------------------------------------|
|-------------------------------------------|
|-------------------------------------------|
|-------2-----------------------8--9--------|
|-------------2--5--2--4--2-----6--7--------|
|-2--3--------------------------------------|

|-------------------------------------------|
|-------------------------------------------|
|-------------------------------------------|
|-------2--------------------------------2--|
|-------------2--5--2--4--2-----2-----------|
|-2--3-----------------------------2--3-----|


6x
||---------------------------------------------------||
||---------------------------------------------------||
||*-------------------------------------------------*||
||*-------------2--------------------------------2--*||
||--2-----------------2--5--2--4--2-----2------------||
||--0-----2--3-----------------------------2--3------||

( lead riff )
( lead riff )
Hey baby, tell me why you hangin 'round
Ain't got time for nothin steady I'm too busy runnin 'round
All you pretty women, you're so far an' in between
I don't need no fancy types I need the ones that's clean


|--------------------------------------------------|
|--------------------------------------------------|
|---------------2--------------------------------2-|
|---2-----------------2--5--2--4--2-----2----------|
|---0-----2--3-----------------------------2--3----|
|--------------------------------------------------|

Hey baby, jump into the back of my car

|-------------------------------------------------|
|-------------------------------------------------|
|-------------2-----------------------------------|
|-2-----------------2--5--2--4--2-----2--------2--|
|-0-----2--3--------------------------------------|
|----------------------------------------2--3-----|

I'm gonna give you love babe that's gonna stir your heart

|-------------------------------------------------|
|-------------------------------------------------|
|-------------------------------------------------|
|-------------2--------------------------------2--|
|-2-----------------2--5--2--4--2-----2-----------|
|-0-----2--3-----------------------------2--3-----|

Hey baby ooooooooh

|-------------------------------------------------|
|-------------------------------------------------|
|-------------------------------------------------|
|-------------2--------------------------------2--|
|-2-----------------2--5--2--4--2-----2-----------|
|-0-----2--3-----------------------------2--3-----|

Hey baby I wantcha to

|--------------------------|--------------------------------|
|--------------------------|--------------------------------|
|--------------------------|--------------------------------|
|-4-4----6-6----7-7----8-8-|-9-9----11-11----12-12----13-14-|
|--------------------------|--------------------------------|
|-2-2----4-4----5-5----6-6-|-7-7----9--9-----10-10----11-12-|

Follow me down the miles baby I'll show you the real love game.

2x
|--------------------------------------------|
|--------------------------------------------|
|*------------------------------------------*|
|*-------2-----------------------8--9-------*|
|--------------2--5--2--4--2-----6--7--------|
|--2--3--------------------------------------|

Love game
Love game

|------------------------------------------------|
|------------------------------------------------|
|------------------------------------------------| Outro
|--------2--------------------8-9--8-9--8-9--8-9-|
|--------------2--5--2--4--2--6-7--6-7--6-7--6-7-|
|--2--3------------------------------------------|


Leads _may_ follow - i dunno. Entering tab on the computer
is just too much work. When I taught lessons, I'd write tab
across my knee, with a pencil and ruler. I swear I could do
ten times the work in half the time...

ACORDES PARA GUITARRA

PIANO UKELELE


COMENTARIOS

Aún no hay comentarios,

¡escribe el primero!

Escribe una pregunta, duda o comentario sobre esta canción, te responderemos a la brevedad.

Las más tocadas de Ted Nugent

Toca una Canción al Azar de Ted Nugent