Banquinho (Raul Gil) (Acordes)

Temas de TV

Subida por Danilo

Compartir


Cambiar Cifrado
Americano Latino

Cambiar Tonalidad
-1 +1
Imprimir FAQ

Para cambio de tonalidad, zoom, cambio de cifrado, haz clic en este botón


CONSEJO:

Afina tu guitarra antes de tocar. Prueba nuestro afinador en linea.

+A
-A

Texto

Desplazamiento

Transportador

Color de Fondo

Archivos

TONALIDAD, TAMAÑO, CIFRADO, SCROL.

Nos renovamos: Ahora puedes cambiar TODO haciendo clic en ICONO de la Guitarra () que aparece en la parte inferior de esta página.


LETRA CON ACORDES

Versão 1
--------

Artista: ?!
|Música:  música do banquinho (Raul Gil)
|Transcrito por Renato Antônio (Pifo)

`------------------------------------


Intro: C


    A4       Dm
O Raul perguntou
  G7         C 
Você não acertou
Am             Dm
Pegue o seu banquinho
  G7         C     (G7 C)
E saia de mansinho

(repete 1x) 

Versão 2
--------
Artista: ??
|Música:  música do banquinho (Raul Gil)
|Tab By: Gustavo Ramos

`------------------------------------

-----------------------------------------------------
--------10-------12-----8-8-7---10-------------------
--11-12----12-11------9-------9----------------------
-----------------------------------------------------
-----------------------------------------------------
-----------------------------------------------------

----------10--------10-9----------14-12--10-----------
--10---10----12------------12-14----------------------
-----11---------12------------------------------------
------------------------------------------------------
------------------------------------------------------
------------------------------------------------------

(P.S.: Não sei se a TAB tá certa, essa é a minha versão p/ musica=)

Video Clip de Banquinho (Raul Gil)


ACORDES PARA GUITARRA

PIANO UKELELE
C
A4
Dm
G7
Am


TOP 20: Las más tocadas de Temas de TV


Toca una Canción al Azar de Temas de TV

Acordes

Cerrar
C
A4
Dm
G7
Am

18.37


145