Branca de Neve (Acordes)

Temas de TV

Subida por Jaelv47

Compartir


Imprimir FAQ
+A
-A

Texto

Desplazamiento

Transportador

Color de Fondo

Archivos

-A
+A
                                          
e|---------------------------|---------------------------|
B|---------------------------|---------------------------|      :
G|:-------------------------:|:-------------------------:|      
D|---------------------------|----0----------------------|    
A|-1--0----------------------|1-3---3-1-0----------------|
E|1-----3--------------------|---------------------------|

                              
e|---------------------------|---------------------------|
B|---------------------------|---------------------------|
G|:-------------------------:|:-------------------------:|
D|---------------------------|-0-------------------------|
A|-------1----------1--------|---3-1-0------0-1-0-------|
E|1-1--3---1-1-1-3-----1---|------------1-3------3...-|
quando acaba continua do inicío

Video Clip de Branca de Neve


ACORDES PARA GUITARRA

PIANO UKELELE
G


TOP 20: Las más tocadas de Temas de TV


Toca una Canción al Azar de Temas de TV

Acordes

Cerrar
G

00.14

x

153