Batman Beyond (Acordes)

Temas de TV

Subida por Zaitung

Compartir


Imprimir FAQ
+A
-A

Texto

Desplazamiento

Transportador

Color de Fondo

Archivos

-A
+A
                  P.M:.................:                  P.M:.................: (Palm Mute)
E|--------------------------------------------------------------------------------------|
B|--------------------------------------------------------------------------------------|
G|--------------------------------------------------------------------------------------|
D|--------------------------------------------------------------------------------------|
A|-2-2---2-2---2-2---2-2-2-2-2-2-2-2-2-2---2-2---2-2---2-2---2-2-2-2-2-2-2-2-2-2--------|
E|-0-0---0-0---0-0---0-0-0-0-0-0-0-0-0-0---0-0---0-0---0-0---0-0-0-0-0-0-0-0-0-0--------|

E|--------------------------------------------------------------------------------------
B|-/12~--11~----/10~--8~----/10~-8~-----/7~--4~----5---/12~--11~----/10~--8~----/10~--8~
G|--------------------------------------------------------------------------------------
D|--------------------------------------------------------------------------------------
A|--------------------------------------------------------------------------------------
E|--------------------------------------------------------------------------------------

E|----------|----------------------------------------------------------------------------
B|-/8~--4~--|--12-12-13--12-12-13--12-12-13--12-12-12-12-15-15-15-15-15------------------
G|----------|----------------------------------------------------------------------------
D|----------|----------------------------------------------------------------------------
A|----------|----------------------------------------------------------------------------
E|----------|----------------------------------------------------------------------------

Video Clip de Batman Beyond


ACORDES PARA GUITARRA

PIANO UKELELE


TOP 20: Las más tocadas de Temas de TV


Toca una Canción al Azar de Temas de TV

Acordes

Cerrar

11.55

x

334