Cavaleiros do Zodíaco (Força Astral) (Acordes)

Temas de TV


Subida por moises

Compartir


Cambiar Cifrado
Americano Latino

Cambiar Tonalidad
-1 +1
Imprimir FAQ

Para cambio de tonalidad, zoom, cambio de cifrado, haz clic en este botón


CONSEJO:

Afina tu guitarra antes de tocar. Prueba nuestro afinador en linea.

+A
-A

Texto

Desplazamiento

Transportador

Color de Fondo

Archivos

TONALIDAD, TAMAÑO, CIFRADO, SCROL.

Nos renovamos: Ahora puedes cambiar TODO haciendo clic en ICONO de la Guitarra () que aparece en la parte inferior de esta página.


LETRA CON ACORDES

INTRIDUÇÃO: Dm Bb C Dm (Bb C Dm Bb A Dm) 2x

SOLO:

E|-----------------------------------
B|---------8-10/11-10-8/10-8---------
G|--7-9-10-------------------10-7----
D|--------------------------------8~-
A|-----------------------------------
E|-----------------------------------

E|----------------8-8-8-8----8-8/10~-
B|-10/11-10-8-------------10---------
G|------------10---------------------
D|------------10~--------------------
A|-----------------------------------
E|-----------------------------------



             Dm
Dentro das estrelas
           Bb
Há uma legião
            C
Pronta pra usar
               Dm Bb A
A força do coração
            Dm
Se a paz na terra
             Bb
Sofre um arranhão
           C
Eles vem lutar
              Dm D
Em nome da união


REFRÃO: repete 2x

                Bb
Cavaleiros do Zodíaco
C             Am Dm
Têm a força astral
                   Bb
Se o inimigo é demoníaco
C             Dm   
Sua luta é mortal
(Bb C Dm Bb A Dm) 2x


         Dm
Cada cavaleiro
             Bb
Tem que proteger
              C
Como um guardião
               Dm  Bb A
Aquele que merecer
                 Dm
Quando o mundo inteiro
         Bb
For o ideal
           C                  
Eles voltarão
                Dm D
À sua estrela natal.

repete refrão

Video Clip de Cavaleiros do Zodíaco (Força Astral)


ACORDES PARA GUITARRA

PIANO UKELELE
Dm
Bb
C
A
D
Am


TOP 20: Las más tocadas de Temas de TV


Toca una Canción al Azar de Temas de TV

Acordes

Cerrar
Dm
Bb
C
A
D
Am

21.55


128