Cavaleiros do Zodíaco - Pegasus Fantasy (Acordes)

Temas de TV

Subida por cisfer

Compartir


Cambiar Cifrado
Americano Latino

Cambiar Tonalidad
-1 +1
Imprimir FAQ

Para cambio de tonalidad, zoom, cambio de cifrado, haz clic en este botón


CONSEJO:

Afina tu guitarra antes de tocar. Prueba nuestro afinador en linea.

+A
-A

Texto

Desplazamiento

Transportador

Color de Fondo

Archivos

TONALIDAD, TAMAÑO, CIFRADO, SCROL.

Nos renovamos: Ahora puedes cambiar TODO haciendo clic en ICONO de la Guitarra () que aparece en la parte inferior de esta página.


LETRA CON ACORDES

    Cm         Ab      Bb           Cm   Cm            Ab
E|-------------------------------|------------------
B|-------------------------------|------------------
G|-------------------------------|------------------
D|-----5-3-----------------------|-----5-3-----6-6-6
A|-3-6-----6-3---3-6-5-----------|-3-6-----6-3------
E|------------4---------4-4-4----|------------------
        Cm
Faça elevar
                 Gm
o cosmo no seu coração
        Ab        Bb         Eb       G
todo o mal, combater, despertar o poder!
            Cm
Sua constelação
               Gm
sempre irá te proteger
  Ab              Bb         Cm
supera a dor e dá forças pra lutar

Ab      Bb
Pegasus Fantasy
        Eb  D  Cm  Bb
Desejos a realizar
        Ab             Bb
pois as asas de um coração sonhador
         G
ninguém irá roubar

      Cm                        Ab
Saint Seiya!    guerreiro das estrelas
      Bb                 Eb      G
Saint Seiya!    nada a temer  oh yeah
      Cm                       Ab
Saint Seiya!    unidos por sua força
      Bb                      (Cm     Ab  Bb  Cm)   ou o solo final, vai a gosto do fregues
Saint Seiya!    Pégasus, até vencer!  eeeeee!  


Solo Final. ( SF)
             
E|-----------------------------------------------------l
B|-----------------------------------------------------l
G|-----------------------------------------------------l
D|-----------------------------------------------------l
A|--3-3-----5---6-------------------3------------------l
E|---------------------4-4------6---------6-6----------l

Video Clip de Cavaleiros do Zodíaco - Pegasus Fantasy


ACORDES PARA GUITARRA

PIANO UKELELE
Cm
Ab
Bb
Gm
Eb
G
D


TOP 20: Las más tocadas de Temas de TV


Toca una Canción al Azar de Temas de TV

Acordes

Cerrar
Cm
Ab
Bb
Gm
Eb
G
D

07.00


143