c ▷ LOONEY TUNES: (Temas de TV) Acordes para Guitarra, Piano & Ukelele

Looney Tunes (Acordes)

Temas de TV

Subida por lowenbandiger

Compartir


Imprimir FAQ
+A
-A

Texto

Desplazamiento

Transportador

Color de Fondo

Archivos

-A
+A
E|--12---------------12------12--------------------------|
B|-------15--13--15------13------13--13/15--15--15--15~--|
G|-------------------------------------------------------|
D|-------------------------------------------------------|
A|-------------------------------------------------------|
E|-------------------------------------------------------|

E|--10---------------10------10--------------------------|
B|-------13--12--13------12------12--12/13--13--13--13~--|
G|-------------------------------------------------------|
D|-------------------------------------------------------|
A|-------------------------------------------------------|
E|-------------------------------------------------------|

E|-----------------------------------|
B|-----------------------------------|
G|-----------------------------------|
D|--------5-------5---5h7--7--7--7~--|
A|--5/7-------7----------------------|
E|-----------------------------------|

E|-----------------------------------|
B|-----------------------------------|
G|-----------------------------------|
D|--------3-------3---3h5--5--5--5~--|
A|--3/5-------5----------------------|
E|-----------------------------------|

E|--12---------------12------12--------------------------|
B|-------15--13--15------13------13--13/15--15--15--15~--|
G|-------------------------------------------------------|
D|-------------------------------------------------------|
A|-------------------------------------------------------|
E|-------------------------------------------------------|

E|---------------------15--17-------|
B|--15--12--15---17-----------------|
G|----------------------------------|
D|----------------------------------|
A|----------------------------------|
E|----------------------------------|

Video Clip de Looney Tunes


ACORDES PARA GUITARRA

PIANO UKELELE


TOP 20: Las más tocadas de Temas de TV


Toca una Canción al Azar de Temas de TV

Acordes

Cerrar

09.37

x

128