A Change Of Heart - Solo (Acordes)

The 1975

Subida por Mius

Compartir


Imprimir FAQ
+A
-A

Texto

Desplazamiento

Transportador

Color de Fondo

Archivos

-A
+A
Solo 1

E|---------------------------------------------------------------------------|
B|----13-----11------------------------11------------------------------------|
G|--------------14-10-------12--10-12-(14)---12---10-------------------------|
D|-----------------------------------------------------10---12---------------|
A|---------------------------------------------------------------------------|
E|---------------------------------------------------------------------------|

E|---------------------------------------------------------------------------|
B|---------------------------------------------------------------------------|
G|---12-10-12-14---12-10-12---10-9-------------------------------------------|
D|------------------------------(14)--12-----15--14--15--(10)----------------|
A|--------------------------------------------------------15-----------------|
E|---------------------------------------------------------------------------|

E|---------------------------------------------------------------------------|
B|---13-h15p13-----15p13-15p13-----------------------------------------------|
G|-----------------------------15p14-------------14--------------------------|
D|------------------------------------17p15--17-(19)---17-15-----------------|
A|-----------------------------------------------------------15-17-----------|
E|---------------------------------------------------------------------------|

E|---------------------------------------------------------------------------|
B|---------------------------------------------------------------------------|
G|-------------14------------------------------------------------------------|
D|---15-17-15-(19)---17-15-17---15--14--------15--14--15--(10)---------------|
A|-------------------------------------17------------------15----------------|
E|---------------------------------------------------------------------------|



************************************

| (n)  Ghost note
| h    Hammer-on
| p    Pull-off

************************************

Video Clip de A Change Of Heart - Solo


ACORDES PARA GUITARRA

PIANO UKELELE


TOP 20: Las más tocadas de The 1975


Toca una Canción al Azar de The 1975

Acordes

Cerrar

11.14

x

176