Love Me (Acordes)

The 1975

Subida por Heme2004

Compartir


Imprimir FAQ
+A
-A

Texto

Desplazamiento

Transportador

Color de Fondo

Archivos

-A
+A
Panning:                   Right                          Left

Strumming pattern   /  /  /  /    /          /  /  /  /  /    /
E|------------------11--11--11--11----10----------11--11--11--11--11----10---------|
B|------------------10--10--10--10----9-----------10--10--10--10--10----9----------|
G|------------------10--10--10--10----9-----------10--10--10--10--10----9----------|
D|---------------------------------------------------------------------------------|
A|---------------------------------------------------------------------------------|
E|---------------------------------------------------------------------------------|

Verse 1 (No Guitar)

Pre-Chorus


|-----------------------------------------------------------------------|
|-----------------------------------------------------------------------|
|-----------------------------------------------------------------------|
|-----------------------------------------------------------------------|
|----------------8-8-8-8-8-8-8-8-10-10-10-10-10-10----------------------|
|----------------6-6-6-6-6-6-6-6-8-8-8-8-8-8-8-8------------------------|

Chorus

Panning:                   Right                          Left

Strumming pattern   /  /  /  /    /          /  /  /  /  /    /
E|------------------11--11--11--11----10----------11--11--11--11--11----10---------|
B|------------------10--10--10--10----9-----------10--10--10--10--10----9----------|
G|------------------10--10--10--10----9-----------10--10--10--10--10----9----------|
D|---------------------------------------------------------------------------------|
A|---------------------------------------------------------------------------------|
E|---------------------------------------------------------------------------------|

lead
|-----------------------------------------------------------------------|
|------------------------9--------------6-----------6-------------------|
|--13-12-10-7h8-7----7h8---7-5------------------------------------------|
|-----------------10-----------5-6-5-3----------5h6---------------------|
|-----------------------------------------------------------------------|
|-----------------------------------------------------------------------|

Verse 2
|-----------------------------------------------------------------------|
|-----------------------------------------------------------------------|
|-----------------------------------------------------------------------|
|--3-3-3-3-3-1-x7-3-3-3-3-3-6-------------------------------------------|
|-----------------------------------------------------------------------|
|-----------------------------------------------------------------------|

Repeat Chorus

Solo

|-----------------------------------------------------16/---------------|
|-----------------15-16-18-15-16-18-15-16-18-15-16-18-------------------|
|-----------------------------------------------------------------------|
|-----------------------------------------------------------------------|
|-----------------------------------------------------------------------|
|-----------------------------------------------------------------------|

|-----------------------------------------------------------------------|
|-18/--16-16-16-15-15-15-13-13-13---------------------------------------|
|---------------------------------15-15-15-13-13-13---------------------|
|---------------------------------------------------15/-----------------|
|-----------------------------------------------------------------------|
|-----------------------------------------------------------------------|

|-----------------------------------------------------------------------|
|----------16-15-13-----------------------------------------------------|
|----13-15----------15-13-12-13-15/-------------------------------------|
|-15--------------------------------------------------------------------|
|-----------------------------------------------------------------------|
|-----------------------------------------------------------------------|

|-------13--------------------------------------------------------------|
|-13-------13-------16-------13-------------------13b-13b---------------|
|----15-------15-13-------15----13--------------------------------------|
|----------------------------------13-12/-------------------------------|
|-----------------------------------------------------------------------|
|-----------------------------------------------------------------------|

|----------------------------------------------------------------------------|
|--16----15-----13-----------------------------------------------------------|
|-----14----13---------------------------------------------------------------|
|--------------------13/-15--------------------------------------------------|
|----------------------------------------------------------------------------|
|----------------------------------------------------------------------------|

Video Clip de Love Me


ACORDES PARA GUITARRA

PIANO UKELELE


TOP 20: Las más tocadas de The 1975


Toca una Canción al Azar de The 1975

Acordes

Cerrar

21.53

x

206