You (Acordes)

The 1975

Subida por NatiCarrari

Compartir


Cambiar Cifrado
Americano Latino

Cambiar Tonalidad
-1 +1
Imprimir FAQ

Para cambio de tonalidad, zoom, cambio de cifrado, haz clic en este botón


CONSEJO:

Afina tu guitarra antes de tocar. Prueba nuestro afinador en linea.

+A
-A

Texto

Desplazamiento

Transportador

Color de Fondo

Archivos

TONALIDAD, TAMAÑO, CIFRADO, SCROL.

Nos renovamos: Ahora puedes cambiar TODO haciendo clic en ICONO de la Guitarra () que aparece en la parte inferior de esta página.


LETRA CON ACORDES

Intro: G G C C G G C

Riff 1
E|-----------------------------------------------------------------------------|
B|-----12--------12-------14-------12------------------------------------------|
G|--12----14-12----14-12----12-12----14----------------------------------------|
D|-----------------------------------------------------------------------------|
A|-----------------------------------------------------------------------------|
E|-----------------------------------------------------------------------------|

Riff 2
Play this but you can work out how many notes.
E|-----------------------------------------------------------------------------|
B|-----15-15-15-15-15-12-12-12-------------------------------------------------|
G|------------------------------14-14-14---------------------------------------|
D|-----------------------------------------------------------------------------|
A|-----------------------------------------------------------------------------|
E|-----------------------------------------------------------------------------|

      G
You're a liar
                      C
At least all of your friends are
     G
So am I
               C
Just typically drowned in my car

        G
It's my party
               C
I'll cry till the end
             G
You must try harder
                      C
Than kissing all of my friends
You

Chorus
               G
It takes a bit more
                    C
Yeah it takes a bit more than you
               G
It takes a bit more
                    C
Yeah it takes a bit more than you

           G
And you're alive
                         C
At least as far as I can tell you are
         G
And so am I
                                C
You beat me down and then we're back to my car

       G
It's so ironic
                   C
How it's only been a year
         G
It's not my fault
              C
That I fucked everybody here

Chorus 
               G
It takes a bit more
                    C
Yeah it takes a bit more than you
               G
It takes a bit more
                    C
Yeah it takes a bit more than you

Break: C Em D

CG,D
And I say
Do you wanna dance, do you wanna dance, do you wanna dance
In the bar at the back of the hall?
And I say
Do you wanna dance, do you wanna dance, do you wanna dance
Dance in the back of the hall?

Chorus 2x:
               G
It takes a bit more
                    C
Yeah it takes a bit more than you
               G
It takes a bit more
                    C
Yeah it takes a bit more than you

Video Clip de You


ACORDES PARA GUITARRA

PIANO UKELELE
G
C
D


TOP 20: Las más tocadas de The 1975


Toca una Canción al Azar de The 1975

Acordes

Cerrar
G
C
D

01.50


143