Girl (Acordes)

The 1975

Subida por Albano

Compartir


Cambiar Cifrado
Americano Latino

Cambiar Tonalidad
-1 +1
Imprimir FAQ

Para cambio de tonalidad, zoom, cambio de cifrado, haz clic en este botón


CONSEJO:

Afina tu guitarra antes de tocar. Prueba nuestro afinador en linea.

+A
-A

Texto

Desplazamiento

Transportador

Color de Fondo

Archivos

TONALIDAD, TAMAÑO, CIFRADO, SCROL.

Nos renovamos: Ahora puedes cambiar TODO haciendo clic en ICONO de la Guitarra () que aparece en la parte inferior de esta página.


LETRA CON ACORDES

Intro
E|---11--11------9----9--9--9-----------11--11--11--11-11---9----------------|
B|---12--12------11---11-11-11----------12--12--12--12-12---11---------------|
G|---11--11------11---11-11-11----------11--11--11--11-11---11---------------| x4 
D|---13--13------9h11-11-11-11----------11--11--11--11-11--------------------|
A|-----------------------------9/11------------------------------------------|
E|---------------------------------------------------------------------------|

Verse 1
E|--11-----------------------------------------11----------------------------|
B|--12-----------------------------------11----12-----------------11---------|
G|--11-----------------------------------11----11-----------------11---------|
D|--13-----------------------------------11----13-----------------11---------|
A|---------------------------------------------------------------------------|
E|---------------------------------------------------------------------------|
        Bite your face to spite your nose      17 and a half years old

E|--11-----------------------------------------11---------------------------------------|
B|--12-----------------------------------11----12---------------------------------11----|
G|--11-----------------------------------11----11---------------------------------11----|
D|--13-----------------------------------11----13---------------------------------11----|
A|--------------------------------------------------------------------------------------|
E|--------------------------------------------------------------------------------------|
I'm worrying about my brother finding out   Where's the fun in doing what you're told?

I Said No!
E|---11--11--xx--11-x-11-11-11-------x--11-x11-x11-x11-11--x9----|
B|---12--12--xx--12-x-11-11-11-------x--12-x12-x12-x12-12--x11---|
G|---11--11--xx--11-x-11-11-11-------x--11-x11-x11-x11-11--x11---| x4
D|---13--13--xx--13-x-11-11-11-------x--11-x11-x11-x11-11--------|
A|-----------------------------9/11------------------------------|
E|---------------------------------------------------------------|

Pre chorus
E|----11----|
B|----12----|
G|----11----|
D|----13----|
A|----------|
E|----------|
         God Help me now.

Chorus
E|---11--11------9----9--9--9-----------11--11--11--11-11---9----------------|
B|---12--12------11---11-11-11----------12--12--12--12-12---11---------------|
G|---11--11------11---11-11-11----------11--11--11--11-11---11---------------| x4 
D|---13--13------9h11-11-11-11----------11--11--11--11-11--------------------|
A|-----------------------------9/11------------------------------------------|
E|---------------------------------------------------------------------------|
...just girls...

Verse 2
16th Notes
E|--------------------------------------------------------------------------------------------------|
B|--------------------------------------------------------------------------------------------------|
G|--------------------------------------------------------------------------------------------------|
D|--13-13-13-13-13-13-13-13-13-13-13-13-13-13-13-13-------------------------------------------------|
A|--------------------------------------------------11-11-11-11-11-11-11-11-11-11-11-11-11-11-11-11-|
E|--------------------------------------------------------------------------------------------------|
    A pair of frozen hands to hold,                   

E|--------------------------------------------------------------------------------------------------|
B|--------------------------------------------------------------------------------------------------|
G|--------------------------------------------------------------------------------------------------|
D|--13-13-13-13-13-13-13-13-13-13-13-13-13-13-13-13-------------------------------------------------|
A|--------------------------------------------------11-11-11-11-11-11-11-11-11-11-11-11-11-11-11-11-|
E|--------------------------------------------------------------------------------------------------|
   
     Oh she's so southern so she feels the cold, 
E|--------------------------------------------------------------------------------------------------|
B|--------------------------------------------------------------------------------------------------|
G|--------------------------------------------------------------------------------------------------|
D|--13-13-13-13-13-13-13-13-13-13-13-13-13-13-13-13-------------------------------------------------|
A|--------------------------------------------------11-x--11-x--11-11-11-11-x--11-11-11-11-11-11-11-|
E|--------------------------------------------------------------------------------------------------|
       One moment I was tearing off your blouse      Now you're living in my house

E|--------------------------------------------------------------------------------------------------|
B|--------------------------------------------------------------------------------------------------|
G|--------------------------------------------------------------------------------------------------|
D|--13-13-13-13-13-13-13-13-13-13-13-13-13-13-13-13-------------------------------------------------|
A|--------------------------------------------------11-x--11--x11--11-11-x--11--x11--11-------------|
E|--------------------------------------------------------------------------------------------------|
      What happened to just messing around?


I Said "Yo!"
E|---11--11--xx--11-x-11-11-11-------x--11-x11-x11-x11-11--x9----|
B|---12--12--xx--12-x-11-11-11-------x--12-x12-x12-x12-12--x11---|
G|---11--11--xx--11-x-11-11-11-------x--11-x11-x11-x11-11--x11---| x4
D|---13--13--xx--13-x-11-11-11-------x--11-x11-x11-x11-11--------|
A|-----------------------------9/11------------------------------|
E|---------------------------------------------------------------|

Pre chorus
E|----11----|
B|----12----|
G|----11----|
D|----13----|
A|----------|
E|----------|
         God Help me now.

Chorus
E|---11--11------9----9--9--9-----------11--11--11--11-11---9----------------|
B|---12--12------11---11-11-11----------12--12--12--12-12---11---------------|
G|---11--11------11---11-11-11----------11--11--11--11-11---11---------------| x4 
D|---13--13------9h11-11-11-11----------11--11--11--11-11--------------------|
A|-----------------------------9/11------------------------------------------|
E|---------------------------------------------------------------------------|

Bridge
E|---------------------------------------------------------------|
B|---------------------------------------------------------------|
G|---------------------------------------------------------------|
D|-6h9-9-9--9-9-9--9-9-9--9-9-9--6h9-9-9--9-9-9--x-9-9--9-9-9-x--| x4
A|---------------------------------------------------------------|
E|---------------------------------------------------------------|

Verse 3
I Said "Yo!"
E|---11--11--xx--11-x-11-11-11-------x--11-x11-x11-x11-11--x9--x-|
B|---12--12--xx--12-x-11-11-11-------x--12-x12-x12-x12-12--x11-x-|
G|---11--11--xx--11-x-11-11-11-------x--11-x11-x11-x11-11--x11-x-| x4
D|---13--13--xx--13-x-11-11-11-------x--11-x11-x11-x11-11--------|
A|-----------------------------9/11------------------------------|
E|---------------------------------------------------------------|

Pre chorus
E|----11----|
B|----12----|
G|----11----|
D|----13----|
A|----------|
E|----------|
         God Help me now.

Outro Chorus
E|---11--11------9----9--9--9-----------11--11--11--11-11---9----------------|
B|---12--12------11---11-11-11----------12--12--12--12-12---11---------------|
G|---11--11------11---11-11-11----------11--11--11--11-11---11---------------| x8 
D|---13--13------9h11-11-11-11----------11--11--11--11-11--------------------|
A|-----------------------------9/11------------------------------------------|
E|---------------------------------------------------------------------------|

Outro
E|---11--11------9----9--9--9-----------11--11--11--11-11---9----------------|
B|---10--12------11---11-11-11----------12--12--12--12-12---11---------------|
G|---11--11------11---11-11-11----------11--11--11--11-11---11---------------
D|---13--13------9h11-11-11-11----------11--11--11--11-11--------------------|
A|-----------------------------9/11------------------------------9/11--------|
E|---------------------------------------------------------------------------|

E|--11--11--11--11-11---9--------11--11--11--11-11---9----|
B|--12--12--12--12-12---11-------12--12--12--12-12---11---|
G|--11--11--11--11-11---11-------11--11--11--11-11---11---| x12
D|--11--11--11--11-11---11-------11--11--11--11-11---11---|
A|--------------------------9/11--------------------------|
E|--------------------------------------------------------|

in the background of that, a second guitar plays
E|---------------------------------------------------------------|
B|---------------------------------------------------------------|
G|---------------------------------------------------------------|
D|-6h9-9-9--9-9-9--9-9-9--9-9-9--6h9-9-9--9-9-9--x-9-9--9-9-9-x--| x12
A|---------------------------------------------------------------|
E|---------------------------------------------------------------|

Video Clip de Girl


ACORDES PARA GUITARRA

PIANO UKELELE


TOP 20: Las más tocadas de The 1975


Toca una Canción al Azar de The 1975

Acordes

Cerrar

19.24


252